  0
SECTION
  2
HEADER
  9
$ACADVER
  1
AC1015
  9
$ACADMAINTVER
 70
     6
  9
$DWGCODEPAGE
  3
ANSI_932
  9
$INSBASE
 10
0.0
 20
0.0
 30
0.0
  9
$EXTMIN
 10
-1232.115652499268
 20
-835.2206096771251
 30
0.0
  9
$EXTMAX
 10
1220.648448754217
 20
834.929835411363
 30
0.0
  9
$LIMMIN
 10
-420.0
 20
-297.0
  9
$LIMMAX
 10
420.0
 20
297.0
  9
$ORTHOMODE
 70
     0
  9
$REGENMODE
 70
     1
  9
$FILLMODE
 70
     1
  9
$QTEXTMODE
 70
     0
  9
$MIRRTEXT
 70
     1
  9
$LTSCALE
 40
0.5
  9
$ATTMODE
 70
     1
  9
$TEXTSIZE
 40
0.2
  9
$TRACEWID
 40
0.05
  9
$TEXTSTYLE
  7
Standard
  9
$CLAYER
  8
0
  9
$CELTYPE
  6
ByLayer
  9
$CECOLOR
 62
   256
  9
$CELTSCALE
 40
1.0
  9
$DISPSILH
 70
     0
  9
$DIMSCALE
 40
1.0
  9
$DIMASZ
 40
6.000003814697266
  9
$DIMEXO
 40
1.0
  9
$DIMDLI
 40
10.0
  9
$DIMRND
 40
0.0
  9
$DIMDLE
 40
0.0
  9
$DIMEXE
 40
1.0
  9
$DIMTP
 40
0.0
  9
$DIMTM
 40
0.0
  9
$DIMTXT
 40
7.0
  9
$DIMCEN
 40
0.0
  9
$DIMTSZ
 40
0.0
  9
$DIMTOL
 70
     0
  9
$DIMLIM
 70
     0
  9
$DIMTIH
 70
     0
  9
$DIMTOH
 70
     0
  9
$DIMSE1
 70
     0
  9
$DIMSE2
 70
     0
  9
$DIMTAD
 70
     1
  9
$DIMZIN
 70
     8
  9
$DIMBLK
  1

  9
$DIMASO
 70
     1
  9
$DIMSHO
 70
     1
  9
$DIMPOST
  1

  9
$DIMAPOST
  1

  9
$DIMALT
 70
     0
  9
$DIMALTD
 70
     2
  9
$DIMALTF
 40
25.4
  9
$DIMLFAC
 40
1.0
  9
$DIMTOFL
 70
     0
  9
$DIMTVP
 40
0.0
  9
$DIMTIX
 70
     0
  9
$DIMSOXD
 70
     0
  9
$DIMSAH
 70
     0
  9
$DIMBLK1
  1

  9
$DIMBLK2
  1

  9
$DIMSTYLE
  2
Standard
  9
$DIMCLRD
 70
     0
  9
$DIMCLRE
 70
     0
  9
$DIMCLRT
 70
     0
  9
$DIMTFAC
 40
0.65
  9
$DIMGAP
 40
0.09
  9
$DIMJUST
 70
     0
  9
$DIMSD1
 70
     0
  9
$DIMSD2
 70
     0
  9
$DIMTOLJ
 70
     0
  9
$DIMTZIN
 70
     0
  9
$DIMALTZ
 70
     0
  9
$DIMALTTZ
 70
     0
  9
$DIMUPT
 70
     0
  9
$DIMDEC
 70
     2
  9
$DIMTDEC
 70
     2
  9
$DIMALTU
 70
     2
  9
$DIMALTTD
 70
     2
  9
$DIMTXSTY
  7
Standard
  9
$DIMAUNIT
 70
     0
  9
$DIMADEC
 70
     2
  9
$DIMALTRND
 40
0.0
  9
$DIMAZIN
 70
     2
  9
$DIMDSEP
 70
    46
  9
$DIMATFIT
 70
     3
  9
$DIMFRAC
 70
     0
  9
$DIMLDRBLK
  1

  9
$DIMLUNIT
 70
     2
  9
$DIMLWD
 70
    -2
  9
$DIMLWE
 70
    -2
  9
$DIMTMOVE
 70
     0
  9
$LUNITS
 70
     2
  9
$LUPREC
 70
     4
  9
$SKETCHINC
 40
0.1
  9
$FILLETRAD
 40
0.5
  9
$AUNITS
 70
     0
  9
$AUPREC
 70
     0
  9
$MENU
  1
.
  9
$ELEVATION
 40
0.0
  9
$PELEVATION
 40
0.0
  9
$THICKNESS
 40
0.0
  9
$LIMCHECK
 70
     0
  9
$CHAMFERA
 40
0.5
  9
$CHAMFERB
 40
0.5
  9
$CHAMFERC
 40
1.0
  9
$CHAMFERD
 40
0.0
  9
$SKPOLY
 70
     0
  9
$TDCREATE
 40
2456500.819333056
  9
$TDUCREATE
 40
2456500.444333056
  9
$TDUPDATE
 40
2456500.819333415
  9
$TDUUPDATE
 40
2456500.444333415
  9
$TDINDWG
 40
0.0000000116
  9
$TDUSRTIMER
 40
0.0000000116
  9
$USRTIMER
 70
     1
  9
$ANGBASE
 50
0.0
  9
$ANGDIR
 70
     0
  9
$PDMODE
 70
     0
  9
$PDSIZE
 40
1.0
  9
$PLINEWID
 40
0.0
  9
$SPLFRAME
 70
     0
  9
$SPLINETYPE
 70
     6
  9
$SPLINESEGS
 70
     8
  9
$HANDSEED
  5
506
  9
$SURFTAB1
 70
     6
  9
$SURFTAB2
 70
     6
  9
$SURFTYPE
 70
     6
  9
$SURFU
 70
     6
  9
$SURFV
 70
     6
  9
$UCSBASE
  2

  9
$UCSNAME
  2

  9
$UCSORG
 10
0.0
 20
0.0
 30
0.0
  9
$UCSXDIR
 10
1.0
 20
0.0
 30
0.0
  9
$UCSYDIR
 10
0.0
 20
1.0
 30
0.0
  9
$UCSORTHOREF
  2

  9
$UCSORTHOVIEW
 70
     0
  9
$UCSORGTOP
 10
0.0
 20
0.0
 30
0.0
  9
$UCSORGBOTTOM
 10
0.0
 20
0.0
 30
0.0
  9
$UCSORGLEFT
 10
0.0
 20
0.0
 30
0.0
  9
$UCSORGRIGHT
 10
0.0
 20
0.0
 30
0.0
  9
$UCSORGFRONT
 10
0.0
 20
0.0
 30
0.0
  9
$UCSORGBACK
 10
0.0
 20
0.0
 30
0.0
  9
$PUCSBASE
  2

  9
$PUCSNAME
  2

  9
$PUCSORG
 10
0.0
 20
0.0
 30
0.0
  9
$PUCSXDIR
 10
1.0
 20
0.0
 30
0.0
  9
$PUCSYDIR
 10
0.0
 20
1.0
 30
0.0
  9
$PUCSORTHOREF
  2

  9
$PUCSORTHOVIEW
 70
     0
  9
$PUCSORGTOP
 10
0.0
 20
0.0
 30
0.0
  9
$PUCSORGBOTTOM
 10
0.0
 20
0.0
 30
0.0
  9
$PUCSORGLEFT
 10
0.0
 20
0.0
 30
0.0
  9
$PUCSORGRIGHT
 10
0.0
 20
0.0
 30
0.0
  9
$PUCSORGFRONT
 10
0.0
 20
0.0
 30
0.0
  9
$PUCSORGBACK
 10
0.0
 20
0.0
 30
0.0
  9
$USERI1
 70
     0
  9
$USERI2
 70
     0
  9
$USERI3
 70
     0
  9
$USERI4
 70
     0
  9
$USERI5
 70
     0
  9
$USERR1
 40
0.0
  9
$USERR2
 40
0.0
  9
$USERR3
 40
0.0
  9
$USERR4
 40
0.0
  9
$USERR5
 40
0.0
  9
$WORLDVIEW
 70
     1
  9
$SHADEDGE
 70
     3
  9
$SHADEDIF
 70
    70
  9
$TILEMODE
 70
     1
  9
$MAXACTVP
 70
    64
  9
$PINSBASE
 10
0.0
 20
0.0
 30
0.0
  9
$PLIMCHECK
 70
     0
  9
$PEXTMIN
 10
1.000000000000000E+20
 20
1.000000000000000E+20
 30
1.000000000000000E+20
  9
$PEXTMAX
 10
-1.000000000000000E+20
 20
-1.000000000000000E+20
 30
-1.000000000000000E+20
  9
$PLIMMIN
 10
0.0
 20
0.0
  9
$PLIMMAX
 10
12.0
 20
9.0
  9
$UNITMODE
 70
     0
  9
$VISRETAIN
 70
     0
  9
$PLINEGEN
 70
     1
  9
$PSLTSCALE
 70
     0
  9
$TREEDEPTH
 70
  3020
  9
$CMLSTYLE
  2
Standard
  9
$CMLJUST
 70
     0
  9
$CMLSCALE
 40
1.0
  9
$PROXYGRAPHICS
 70
     0
  9
$MEASUREMENT
 70
     1
  9
$CELWEIGHT
370
    -1
  9
$ENDCAPS
280
     0
  9
$JOINSTYLE
280
     0
  9
$LWDISPLAY
290
     1
  9
$INSUNITS
 70
     4
  9
$HYPERLINKBASE
  1

  9
$STYLESHEET
  1

  9
$XEDIT
290
     1
  9
$CEPSNTYPE
380
     0
  9
$PSTYLEMODE
290
     1
  9
$FINGERPRINTGUID
  2
{2AE15217-D2BB-47C5-940C-007E07AEF9C8}
  9
$VERSIONGUID
  2
{FAEB1C32-E019-11D5-929B-00C0DF256EC4}
  9
$EXTNAMES
290
     1
  9
$PSVPSCALE
 40
0.0
  9
$OLESTARTUP
290
     0
  0
ENDSEC
  0
SECTION
  2
CLASSES
  0
CLASS
  1
ACDBDICTIONARYWDFLT
  2
AcDbDictionaryWithDefault
  3
ObjectDBX Classes
 90
        0
280
     0
281
     0
  0
CLASS
  1
VISUALSTYLE
  2
AcDbVisualStyle
  3
ObjectDBX Classes
 90
     4095
280
     0
281
     0
  0
CLASS
  1
MATERIAL
  2
AcDbMaterial
  3
ObjectDBX Classes
 90
     1153
280
     0
281
     0
  0
CLASS
  1
SCALE
  2
AcDbScale
  3
ObjectDBX Classes
 90
     1153
280
     0
281
     0
  0
CLASS
  1
DICTIONARYVAR
  2
AcDbDictionaryVar
  3
ObjectDBX Classes
 90
        0
280
     0
281
     0
  0
CLASS
  1
ACDBPLACEHOLDER
  2
AcDbPlaceHolder
  3
ObjectDBX Classes
 90
        0
280
     0
281
     0
  0
CLASS
  1
LAYOUT
  2
AcDbLayout
  3
ObjectDBX Classes
 90
        0
280
     0
281
     0
  0
ENDSEC
  0
SECTION
  2
TABLES
  0
TABLE
  2
VPORT
  5
8
330
0
100
AcDbSymbolTable
 70
     1
  0
VPORT
  5
29
330
8
100
AcDbSymbolTableRecord
100
AcDbViewportTableRecord
  2
*Active
 70
     0
 10
0.0
 20
0.0
 11
1.0
 21
1.0
 12
-5.733601872525075
 22
-0.3539943601065829
 13
0.0
 23
0.0
 14
0.5
 24
0.5
 15
0.5
 25
0.5
 16
0.0
 26
0.0
 36
1.0
 17
0.0
 27
0.0
 37
0.0
 40
568.2767100736262
 41
1.467488953256838
 42
50.0
 43
0.0
 44
0.0
 50
0.0
 51
0.0
 71
     0
 72
  1000
 73
     1
 74
     1
 75
     0
 76
     0
 77
     0
 78
     0
281
     0
 65
     1
110
0.0
120
0.0
130
0.0
111
1.0
121
0.0
131
0.0
112
0.0
122
1.0
132
0.0
 79
     0
146
0.0
  0
ENDTAB
  0
TABLE
  2
LTYPE
  5
5
330
0
100
AcDbSymbolTable
 70
    53
  0
LTYPE
  5
14
330
5
100
AcDbSymbolTableRecord
100
AcDbLinetypeTableRecord
  2
ByBlock
 70
     0
  3

 72
    65
 73
     0
 40
0.0
  0
LTYPE
  5
15
330
5
100
AcDbSymbolTableRecord
100
AcDbLinetypeTableRecord
  2
ByLayer
 70
     0
  3

 72
    65
 73
     0
 40
0.0
  0
LTYPE
  5
16
330
5
100
AcDbSymbolTableRecord
100
AcDbLinetypeTableRecord
  2
Continuous
 70
     0
  3
Solid line
 72
    65
 73
     0
 40
0.0
  0
LTYPE
  5
40
330
5
100
AcDbSymbolTableRecord
100
AcDbLinetypeTableRecord
  2
HIDDENX2
 70
     0
  3
Hidden (2x) ____ ____ ____ ____ ____ ____ ____ 
 72
    65
 73
     2
 40
19.05
 49
12.7
 74
     0
 49
-6.35
 74
     0
  0
LTYPE
  5
41
330
5
100
AcDbSymbolTableRecord
100
AcDbLinetypeTableRecord
  2
HIDDEN
 70
     0
  3
Hidden __ __ __ __ __ __ __ __ __ __ __ __ __ __
 72
    65
 73
     2
 40
9.524999999999999
 49
6.35
 74
     0
 49
-3.175
 74
     0
  0
LTYPE
  5
42
330
5
100
AcDbSymbolTableRecord
100
AcDbLinetypeTableRecord
  2
HIDDEN2
 70
     0
  3
Hidden (.5x) _ _ _ _ _ _ _ _ _ _ _ _ _ _ _ _ _ 
 72
    65
 73
     2
 40
4.762499999999999
 49
3.175
 74
     0
 49
-1.5875
 74
     0
  0
LTYPE
  5
43
330
5
100
AcDbSymbolTableRecord
100
AcDbLinetypeTableRecord
  2
DASHED
 70
     0
  3
Dashed __ __ __ __ __ __ __ __ __ __ __ __ __ _
 72
    65
 73
     2
 40
19.05
 49
12.7
 74
     0
 49
-6.35
 74
     0
  0
LTYPE
  5
44
330
5
100
AcDbSymbolTableRecord
100
AcDbLinetypeTableRecord
  2
DASHED2
 70
     0
  3
Dashed (.5x) _ _ _ _ _ _ _ _ _ _ _ _ _ _ _ _ _ 
 72
    65
 73
     2
 40
9.524999999999999
 49
6.35
 74
     0
 49
-3.175
 74
     0
  0
LTYPE
  5
45
330
5
100
AcDbSymbolTableRecord
100
AcDbLinetypeTableRecord
  2
DASHEDX2
 70
     0
  3
Dashed (2x) ____  ____  ____  ____  ____  ___
 72
    65
 73
     2
 40
38.09999999999999
 49
25.4
 74
     0
 49
-12.7
 74
     0
  0
LTYPE
  5
46
330
5
100
AcDbSymbolTableRecord
100
AcDbLinetypeTableRecord
  2
DOTX2
 70
     0
  3
Dot (2x) .  .  .  .  .  .  .  .  .  .  .  .  .  .
 72
    65
 73
     2
 40
12.7
 49
0.0
 74
     0
 49
-12.7
 74
     0
  0
LTYPE
  5
47
330
5
100
AcDbSymbolTableRecord
100
AcDbLinetypeTableRecord
  2
DOT
 70
     0
  3
Dot . . . . . . . . . . . . . . . . . . . . . . . .
 72
    65
 73
     2
 40
6.35
 49
0.0
 74
     0
 49
-6.35
 74
     0
  0
LTYPE
  5
48
330
5
100
AcDbSymbolTableRecord
100
AcDbLinetypeTableRecord
  2
DOT2
 70
     0
  3
Dot (.5x) ........................................
 72
    65
 73
     2
 40
3.175
 49
0.0
 74
     0
 49
-3.175
 74
     0
  0
LTYPE
  5
49
330
5
100
AcDbSymbolTableRecord
100
AcDbLinetypeTableRecord
  2
CENTERX2
 70
     0
  3
Center (2x) ________  __  ________  __  _____
 72
    65
 73
     4
 40
101.6
 49
63.5
 74
     0
 49
-12.7
 74
     0
 49
12.7
 74
     0
 49
-12.7
 74
     0
  0
LTYPE
  5
4A
330
5
100
AcDbSymbolTableRecord
100
AcDbLinetypeTableRecord
  2
CENTER
 70
     0
  3
Center ____ _ ____ _ ____ _ ____ _ ____ _ ____
 72
    65
 73
     4
 40
50.8
 49
31.75
 74
     0
 49
-6.35
 74
     0
 49
6.35
 74
     0
 49
-6.35
 74
     0
  0
LTYPE
  5
4B
330
5
100
AcDbSymbolTableRecord
100
AcDbLinetypeTableRecord
  2
CENTER2
 70
     0
  3
Center (.5x) ___ _ ___ _ ___ _ ___ _ ___ _ ___
 72
    65
 73
     4
 40
28.575
 49
19.05
 74
     0
 49
-3.175
 74
     0
 49
3.175
 74
     0
 49
-3.175
 74
     0
  0
LTYPE
  5
4C
330
5
100
AcDbSymbolTableRecord
100
AcDbLinetypeTableRecord
  2
DASHDOTX2
 70
     0
  3
Dash dot (2x) ____  .  ____  .  ____  .  ___
 72
    65
 73
     4
 40
50.8
 49
25.4
 74
     0
 49
-12.7
 74
     0
 49
0.0
 74
     0
 49
-12.7
 74
     0
  0
LTYPE
  5
4D
330
5
100
AcDbSymbolTableRecord
100
AcDbLinetypeTableRecord
  2
DASHDOT
 70
     0
  3
Dash dot __ . __ . __ . __ . __ . __ . __ . __
 72
    65
 73
     4
 40
25.4
 49
12.7
 74
     0
 49
-6.35
 74
     0
 49
0.0
 74
     0
 49
-6.35
 74
     0
  0
LTYPE
  5
4E
330
5
100
AcDbSymbolTableRecord
100
AcDbLinetypeTableRecord
  2
DASHDOT2
 70
     0
  3
Dash dot (.5x) _._._._._._._._._._._._._._._.
 72
    65
 73
     4
 40
12.7
 49
6.35
 74
     0
 49
-3.175
 74
     0
 49
0.0
 74
     0
 49
-3.175
 74
     0
  0
LTYPE
  5
4F
330
5
100
AcDbSymbolTableRecord
100
AcDbLinetypeTableRecord
  2
DIVIDEX2
 70
     0
  3
Divide (2x) ________  .  .  ________  .  .  _
 72
    65
 73
     6
 40
63.5
 49
25.4
 74
     0
 49
-12.7
 74
     0
 49
0.0
 74
     0
 49
-12.7
 74
     0
 49
0.0
 74
     0
 49
-12.7
 74
     0
  0
LTYPE
  5
50
330
5
100
AcDbSymbolTableRecord
100
AcDbLinetypeTableRecord
  2
DIVIDE
 70
     0
  3
Divide ____ . . ____ . . ____ . . ____ . . ____
 72
    65
 73
     6
 40
31.75
 49
12.7
 74
     0
 49
-6.35
 74
     0
 49
0.0
 74
     0
 49
-6.35
 74
     0
 49
0.0
 74
     0
 49
-6.35
 74
     0
  0
LTYPE
  5
51
330
5
100
AcDbSymbolTableRecord
100
AcDbLinetypeTableRecord
  2
DIVIDE2
 70
     0
  3
Divide (.5x) __..__..__..__..__..__..__..__.._
 72
    65
 73
     6
 40
15.875
 49
6.35
 74
     0
 49
-3.175
 74
     0
 49
0.0
 74
     0
 49
-3.175
 74
     0
 49
0.0
 74
     0
 49
-3.175
 74
     0
  0
LTYPE
  5
52
330
5
100
AcDbSymbolTableRecord
100
AcDbLinetypeTableRecord
  2
BORDERX2
 70
     0
  3
Border (2x) ____  ____  .  ____  ____  .  ___
 72
    65
 73
     6
 40
88.89999999999999
 49
25.4
 74
     0
 49
-12.7
 74
     0
 49
25.4
 74
     0
 49
-12.7
 74
     0
 49
0.0
 74
     0
 49
-12.7
 74
     0
  0
LTYPE
  5
53
330
5
100
AcDbSymbolTableRecord
100
AcDbLinetypeTableRecord
  2
BORDER
 70
     0
  3
Border __ __ . __ __ . __ __ . __ __ . __ __ .
 72
    65
 73
     6
 40
44.45
 49
12.7
 74
     0
 49
-6.35
 74
     0
 49
12.7
 74
     0
 49
-6.35
 74
     0
 49
0.0
 74
     0
 49
-6.35
 74
     0
  0
LTYPE
  5
54
330
5
100
AcDbSymbolTableRecord
100
AcDbLinetypeTableRecord
  2
BORDER2
 70
     0
  3
Border (.5x) __.__.__.__.__.__.__.__.__.__.__.
 72
    65
 73
     6
 40
22.225
 49
6.35
 74
     0
 49
-3.175
 74
     0
 49
6.35
 74
     0
 49
-3.175
 74
     0
 49
0.0
 74
     0
 49
-3.175
 74
     0
  0
LTYPE
  5
55
330
5
100
AcDbSymbolTableRecord
100
AcDbLinetypeTableRecord
  2
PHANTOMX2
 70
     0
  3
Phantom (2x) ____________    ____    ____   _
 72
    65
 73
     6
 40
127.0
 49
63.5
 74
     0
 49
-12.7
 74
     0
 49
12.7
 74
     0
 49
-12.7
 74
     0
 49
12.7
 74
     0
 49
-12.7
 74
     0
  0
LTYPE
  5
56
330
5
100
AcDbSymbolTableRecord
100
AcDbLinetypeTableRecord
  2
PHANTOM
 70
     0
  3
Phantom ______  __  __  ______  __  __  ______ 
 72
    65
 73
     6
 40
63.5
 49
31.75
 74
     0
 49
-6.35
 74
     0
 49
6.35
 74
     0
 49
-6.35
 74
     0
 49
6.35
 74
     0
 49
-6.35
 74
     0
  0
LTYPE
  5
57
330
5
100
AcDbSymbolTableRecord
100
AcDbLinetypeTableRecord
  2
PHANTOM2
 70
     0
  3
Phantom (.5x) ___ _ _ ___ _ _ ___ _ _ ___ _ _
 72
    65
 73
     6
 40
31.75
 49
15.875
 74
     0
 49
-3.175
 74
     0
 49
3.175
 74
     0
 49
-3.175
 74
     0
 49
3.175
 74
     0
 49
-3.175
 74
     0
  0
LTYPE
  5
58
330
5
100
AcDbSymbolTableRecord
100
AcDbLinetypeTableRecord
  2
ACAD_ISO06W100
 70
     0
  3
ISO long-dash triple-dot ____ ... ____ ... ____
 72
    65
 73
     8
 40
36.0
 49
24.0
 74
     0
 49
-3.0
 74
     0
 49
0.0
 74
     0
 49
-3.0
 74
     0
 49
0.0
 74
     0
 49
-3.0
 74
     0
 49
0.0
 74
     0
 49
-3.0
 74
     0
  0
LTYPE
  5
59
330
5
100
AcDbSymbolTableRecord
100
AcDbLinetypeTableRecord
  2
ACAD_ISO13W100
 70
     0
  3
ISO double-dash double-dot __ __ . . __ __ . . _
 72
    65
 73
     8
 40
36.0
 49
12.0
 74
     0
 49
-3.0
 74
     0
 49
12.0
 74
     0
 49
-3.0
 74
     0
 49
0.0
 74
     0
 49
-3.0
 74
     0
 49
0.0
 74
     0
 49
-3.0
 74
     0
  0
LTYPE
  5
5A
330
5
100
AcDbSymbolTableRecord
100
AcDbLinetypeTableRecord
  2
ACAD_ISO14W100
 70
     0
  3
ISO dash triple-dot __ . . . __ . . . __ . . . _
 72
    65
 73
     8
 40
24.0
 49
12.0
 74
     0
 49
-3.0
 74
     0
 49
0.0
 74
     0
 49
-3.0
 74
     0
 49
0.0
 74
     0
 49
-3.0
 74
     0
 49
0.0
 74
     0
 49
-3.0
 74
     0
  0
LTYPE
  5
5B
330
5
100
AcDbSymbolTableRecord
100
AcDbLinetypeTableRecord
  2
ACAD_ISO02W100
 70
     0
  3
ISO dash __ __ __ __ __ __ __ __ __ __ __ __ __
 72
    65
 73
     2
 40
15.0
 49
12.0
 74
     0
 49
-3.0
 74
     0
  0
LTYPE
  5
5C
330
5
100
AcDbSymbolTableRecord
100
AcDbLinetypeTableRecord
  2
ACAD_ISO03W100
 70
     0
  3
ISO dash space __    __    __    __    __    __
 72
    65
 73
     2
 40
30.0
 49
12.0
 74
     0
 49
-18.0
 74
     0
  0
LTYPE
  5
5D
330
5
100
AcDbSymbolTableRecord
100
AcDbLinetypeTableRecord
  2
ACAD_ISO04W100
 70
     0
  3
ISO long-dash dot ____ . ____ . ____ . ____ . _
 72
    65
 73
     4
 40
30.0
 49
24.0
 74
     0
 49
-3.0
 74
     0
 49
0.0
 74
     0
 49
-3.0
 74
     0
  0
LTYPE
  5
5E
330
5
100
AcDbSymbolTableRecord
100
AcDbLinetypeTableRecord
  2
ACAD_ISO05W100
 70
     0
  3
ISO long-dash double-dot ____ .. ____ .. ____ . 
 72
    65
 73
     6
 40
33.0
 49
24.0
 74
     0
 49
-3.0
 74
     0
 49
0.0
 74
     0
 49
-3.0
 74
     0
 49
0.0
 74
     0
 49
-3.0
 74
     0
  0
LTYPE
  5
5F
330
5
100
AcDbSymbolTableRecord
100
AcDbLinetypeTableRecord
  2
ACAD_ISO07W100
 70
     0
  3
ISO dot . . . . . . . . . . . . . . . . . . . . 
 72
    65
 73
     2
 40
3.0
 49
0.0
 74
     0
 49
-3.0
 74
     0
  0
LTYPE
  5
60
330
5
100
AcDbSymbolTableRecord
100
AcDbLinetypeTableRecord
  2
ACAD_ISO08W100
 70
     0
  3
ISO long-dash short-dash ____ __ ____ __ ____ _
 72
    65
 73
     4
 40
36.0
 49
24.0
 74
     0
 49
-3.0
 74
     0
 49
6.0
 74
     0
 49
-3.0
 74
     0
  0
LTYPE
  5
61
330
5
100
AcDbSymbolTableRecord
100
AcDbLinetypeTableRecord
  2
ACAD_ISO09W100
 70
     0
  3
ISO long-dash double-short-dash ____ __ __ ____
 72
    65
 73
     6
 40
45.0
 49
24.0
 74
     0
 49
-3.0
 74
     0
 49
6.0
 74
     0
 49
-3.0
 74
     0
 49
6.0
 74
     0
 49
-3.0
 74
     0
  0
LTYPE
  5
62
330
5
100
AcDbSymbolTableRecord
100
AcDbLinetypeTableRecord
  2
ACAD_ISO10W100
 70
     0
  3
ISO dash dot __ . __ . __ . __ . __ . __ . __ . 
 72
    65
 73
     4
 40
18.0
 49
12.0
 74
     0
 49
-3.0
 74
     0
 49
0.0
 74
     0
 49
-3.0
 74
     0
  0
LTYPE
  5
63
330
5
100
AcDbSymbolTableRecord
100
AcDbLinetypeTableRecord
  2
ACAD_ISO11W100
 70
     0
  3
ISO double-dash dot __ __ . __ __ . __ __ . __ _
 72
    65
 73
     6
 40
33.0
 49
12.0
 74
     0
 49
-3.0
 74
     0
 49
12.0
 74
     0
 49
-3.0
 74
     0
 49
0.0
 74
     0
 49
-3.0
 74
     0
  0
LTYPE
  5
64
330
5
100
AcDbSymbolTableRecord
100
AcDbLinetypeTableRecord
  2
ACAD_ISO12W100
 70
     0
  3
ISO dash double-dot __ . . __ . . __ . . __ . . 
 72
    65
 73
     6
 40
21.0
 49
12.0
 74
     0
 49
-3.0
 74
     0
 49
0.0
 74
     0
 49
-3.0
 74
     0
 49
0.0
 74
     0
 49
-3.0
 74
     0
  0
LTYPE
  5
65
330
5
100
AcDbSymbolTableRecord
100
AcDbLinetypeTableRecord
  2
ACAD_ISO15W100
 70
     0
  3
ISO double-dash triple-dot __ __ . . . __ __ . .
 72
    65
 73
    10
 40
39.0
 49
12.0
 74
     0
 49
-3.0
 74
     0
 49
12.0
 74
     0
 49
-3.0
 74
     0
 49
0.0
 74
     0
 49
-3.0
 74
     0
 49
0.0
 74
     0
 49
-3.0
 74
     0
 49
0.0
 74
     0
 49
-3.0
 74
     0
  0
LTYPE
  5
66
330
5
100
AcDbSymbolTableRecord
100
AcDbLinetypeTableRecord
  2
JIS_02_0.7
 70
     0
  3
HIDDEN0.75 _ _ _ _ _ _ _ _ _ _ _ _ _ _ _ _ _ 
 72
    65
 73
     2
 40
1.35
 49
0.75
 74
     0
 49
-0.6
 74
     0
  0
LTYPE
  5
67
330
5
100
AcDbSymbolTableRecord
100
AcDbLinetypeTableRecord
  2
JIS_02_1.0
 70
     0
  3
HIDDEN01 _ _ _ _ _ _ _ _ _ _ _ _ _ _ _ _ _ 
 72
    65
 73
     2
 40
2.0
 49
1.0
 74
     0
 49
-1.0
 74
     0
  0
LTYPE
  5
68
330
5
100
AcDbSymbolTableRecord
100
AcDbLinetypeTableRecord
  2
JIS_02_1.2
 70
     0
  3
HIDDEN01.25  _ _ _ _ _ _ _ _ _ _ _ _ _ _ _ _ _ 
 72
    65
 73
     2
 40
2.5
 49
1.25
 74
     0
 49
-1.25
 74
     0
  0
LTYPE
  5
69
330
5
100
AcDbSymbolTableRecord
100
AcDbLinetypeTableRecord
  2
JIS_02_2.0
 70
     0
  3
HIDDEN02 __ __ __ __ __ __ __ __ __ __ __ 
 72
    65
 73
     2
 40
3.0
 49
2.0
 74
     0
 49
-1.0
 74
     0
  0
LTYPE
  5
6A
330
5
100
AcDbSymbolTableRecord
100
AcDbLinetypeTableRecord
  2
JIS_02_4.0
 70
     0
  3
HIDDEN04 ____ ____ ____ ____ ____ ____ ____ 
 72
    65
 73
     2
 40
5.5
 49
4.0
 74
     0
 49
-1.5
 74
     0
  0
LTYPE
  5
6B
330
5
100
AcDbSymbolTableRecord
100
AcDbLinetypeTableRecord
  2
JIS_08_11
 70
     0
  3
1SASEN11 ___ _ ___ _ ___ _ ___ _ ___ _ ___
 72
    65
 73
     4
 40
12.8
 49
11.0
 74
     0
 49
-0.6
 74
     0
 49
0.6
 74
     0
 49
-0.6
 74
     0
  0
LTYPE
  5
6C
330
5
100
AcDbSymbolTableRecord
100
AcDbLinetypeTableRecord
  2
JIS_08_15
 70
     0
  3
1SASEN15 ____ _ ____ _ ____ _ ____ _ ____ 
 72
    65
 73
     4
 40
17.25
 49
15.0
 74
     0
 49
-0.75
 74
     0
 49
0.75
 74
     0
 49
-0.75
 74
     0
  0
LTYPE
  5
6D
330
5
100
AcDbSymbolTableRecord
100
AcDbLinetypeTableRecord
  2
JIS_08_25
 70
     0
  3
1SASEN25 ________  __  ________  __  _____
 72
    65
 73
     4
 40
28.0
 49
25.0
 74
     0
 49
-1.125
 74
     0
 49
0.75
 74
     0
 49
-1.125
 74
     0
  0
LTYPE
  5
6E
330
5
100
AcDbSymbolTableRecord
100
AcDbLinetypeTableRecord
  2
JIS_08_37
 70
     0
  3
1SASEN37 ________  __  ________  __  _____
 72
    65
 73
     4
 40
40.5
 49
37.5
 74
     0
 49
-1.125
 74
     0
 49
0.75
 74
     0
 49
-1.125
 74
     0
  0
LTYPE
  5
6F
330
5
100
AcDbSymbolTableRecord
100
AcDbLinetypeTableRecord
  2
JIS_08_50
 70
     0
  3
1SASEN50 _______________  __  ____________
 72
    65
 73
     4
 40
53.0
 49
50.0
 74
     0
 49
-1.125
 74
     0
 49
0.75
 74
     0
 49
-1.125
 74
     0
  0
LTYPE
  5
70
330
5
100
AcDbSymbolTableRecord
100
AcDbLinetypeTableRecord
  2
JIS_09_08
 70
     0
  3
2SASEN8 __ _ _ __ _ _ __ _ _ __ _ _ __ _ _ 
 72
    65
 73
     6
 40
10.75
 49
8.0
 74
     0
 49
-0.55
 74
     0
 49
0.55
 74
     0
 49
-0.55
 74
     0
 49
0.55
 74
     0
 49
-0.55
 74
     0
  0
LTYPE
  5
71
330
5
100
AcDbSymbolTableRecord
100
AcDbLinetypeTableRecord
  2
JIS_09_15
 70
     0
  3
2SASEN15 ___ _ _ ___ _ _ ___ _ _ ___ _ _ ___ 
 72
    65
 73
     6
 40
18.9
 49
15.0
 74
     0
 49
-0.9
 74
     0
 49
0.6
 74
     0
 49
-0.9
 74
     0
 49
0.6
 74
     0
 49
-0.9
 74
     0
  0
LTYPE
  5
72
330
5
100
AcDbSymbolTableRecord
100
AcDbLinetypeTableRecord
  2
JIS_09_29
 70
     0
  3
2SASEN29 ______　__  __  ______　__  __  ___
 72
    65
 73
     6
 40
34.0
 49
29.0
 74
     0
 49
-1.2
 74
     0
 49
0.7
 74
     0
 49
-1.2
 74
     0
 49
0.7
 74
     0
 49
-1.2
 74
     0
  0
LTYPE
  5
73
330
5
100
AcDbSymbolTableRecord
100
AcDbLinetypeTableRecord
  2
JIS_09_50
 70
     0
  3
2SASEN50 ____________　__  __  _____________
 72
    65
 73
     6
 40
55.0
 49
50.0
 74
     0
 49
-1.2
 74
     0
 49
0.7
 74
     0
 49
-1.2
 74
     0
 49
0.7
 74
     0
 49
-1.2
 74
     0
  0
ENDTAB
  0
TABLE
  2
LAYER
  5
2
330
0
100
AcDbSymbolTable
 70
     1
  0
LAYER
  5
10
330
2
100
AcDbSymbolTableRecord
100
AcDbLayerTableRecord
  2
0
 70
     0
 62
     7
  6
Continuous
370
    -3
390
F
  0
ENDTAB
  0
TABLE
  2
STYLE
  5
3
330
0
100
AcDbSymbolTable
 70
     2
  0
STYLE
  5
11
330
3
100
AcDbSymbolTableRecord
100
AcDbTextStyleTableRecord
  2
Standard
 70
     0
 40
0.0
 41
1.0
 50
0.0
 71
     0
 42
0.2
  3
txt.shx
  4
bigfont.shx
  0
STYLE
  5
48E
330
3
100
AcDbSymbolTableRecord
100
AcDbTextStyleTableRecord
  2
dcStyle0
 70
     0
 40
0.0
 41
0.7801418439716312
 50
0.0
 71
     0
 42
0.2
  3
txt.shx
  4
bigfont
  0
ENDTAB
  0
TABLE
  2
VIEW
  5
6
330
0
100
AcDbSymbolTable
 70
     0
  0
ENDTAB
  0
TABLE
  2
UCS
  5
7
330
0
100
AcDbSymbolTable
 70
     0
  0
ENDTAB
  0
TABLE
  2
APPID
  5
9
330
0
100
AcDbSymbolTable
 70
     2
  0
APPID
  5
12
330
9
100
AcDbSymbolTableRecord
100
AcDbRegAppTableRecord
  2
ACAD
 70
     0
  0
APPID
  5
3F
330
9
100
AcDbSymbolTableRecord
100
AcDbRegAppTableRecord
  2
DaFusionOut
 70
     0
  0
ENDTAB
  0
TABLE
  2
DIMSTYLE
  5
A
330
0
100
AcDbSymbolTable
 70
     1
100
AcDbDimStyleTable
  0
DIMSTYLE
105
27
330
A
100
AcDbSymbolTableRecord
100
AcDbDimStyleTableRecord
  2
Standard
 70
     0
178
     0
340
11
  0
ENDTAB
  0
TABLE
  2
BLOCK_RECORD
  5
1
330
0
100
AcDbSymbolTable
 70
     1
  0
BLOCK_RECORD
  5
1F
330
1
100
AcDbSymbolTableRecord
100
AcDbBlockTableRecord
  2
*Model_Space
340
22
  0
BLOCK_RECORD
  5
1B
330
1
100
AcDbSymbolTableRecord
100
AcDbBlockTableRecord
  2
*Paper_Space
340
1E
  0
BLOCK_RECORD
  5
23
330
1
100
AcDbSymbolTableRecord
100
AcDbBlockTableRecord
  2
*Paper_Space0
340
26
  0
ENDTAB
  0
ENDSEC
  0
SECTION
  2
BLOCKS
  0
BLOCK
  5
20
330
1F
100
AcDbEntity
  8
0
100
AcDbBlockBegin
  2
*Model_Space
 70
     0
 10
0.0
 20
0.0
 30
0.0
  3
*Model_Space
  1

  0
ENDBLK
  5
21
330
1F
100
AcDbEntity
  8
0
100
AcDbBlockEnd
  0
BLOCK
  5
1C
330
1B
100
AcDbEntity
 67
     1
  8
0
100
AcDbBlockBegin
  2
*Paper_Space
 70
     0
 10
0.0
 20
0.0
 30
0.0
  3
*Paper_Space
  1

  0
ENDBLK
  5
1D
330
1B
100
AcDbEntity
 67
     1
  8
0
100
AcDbBlockEnd
  0
BLOCK
  5
24
330
23
100
AcDbEntity
  8
0
100
AcDbBlockBegin
  2
*Paper_Space0
 70
     0
 10
0.0
 20
0.0
 30
0.0
  3
*Paper_Space0
  1

  0
ENDBLK
  5
25
330
23
100
AcDbEntity
  8
0
100
AcDbBlockEnd
  0
ENDSEC
  0
SECTION
  2
ENTITIES
  0
LINE
  5
75
330
1F
100
AcDbEntity
  8
0
  6
Continuous
 62
     2
370
    13
100
AcDbLine
 10
-398.2511437185622
 20
-278.5037946476291
 30
0.0
 11
-398.2511437185622
 21
278.213020381867
 31
0.0
  0
LINE
  5
76
330
1F
100
AcDbEntity
  8
0
  6
Continuous
 62
     2
370
    13
100
AcDbLine
 10
381.6319780692575
 20
278.213020381867
 30
0.0
 11
-398.2511437185622
 21
278.213020381867
 31
0.0
  0
LINE
  5
77
330
1F
100
AcDbEntity
  8
0
  6
Continuous
 62
     2
370
    13
100
AcDbLine
 10
310.1932315402955
 20
-278.5037946476291
 30
0.0
 11
310.1932315402955
 21
-265.1837858827694
 31
0.0
  0
LINE
  5
78
330
1F
100
AcDbEntity
  8
0
  6
Continuous
 62
     2
370
    13
100
AcDbLine
 10
273.3993261105788
 20
-278.5037946476291
 30
0.0
 11
273.3993261105788
 21
-265.1837858827694
 31
0.0
  0
LINE
  5
79
330
1F
100
AcDbEntity
  8
0
  6
Continuous
 62
     2
370
    13
100
AcDbLine
 10
350.1862864114373
 20
-278.5037946476291
 30
0.0
 11
350.1862864114373
 21
-265.1837858827694
 31
0.0
  0
LINE
  5
7A
330
1F
100
AcDbEntity
  8
0
  6
Continuous
 62
     2
370
    13
100
AcDbLine
 10
-398.2511437185622
 20
-265.1837858827694
 30
0.0
 11
381.6319780692575
 21
-265.1837858827694
 31
0.0
  0
LINE
  5
7B
330
1F
100
AcDbEntity
  8
0
  6
Continuous
 62
     2
370
    13
100
AcDbLine
 10
-398.2511437185622
 20
-278.5037946476291
 30
0.0
 11
381.6319780692575
 21
-278.5037946476291
 31
0.0
  0
LINE
  5
7C
330
1F
100
AcDbEntity
  8
0
  6
Continuous
 62
     2
370
    13
100
AcDbLine
 10
381.6319780692575
 20
278.213020381867
 30
0.0
 11
381.6319780692575
 21
-278.5037946476291
 31
0.0
  0
LINE
  5
7D
330
1F
100
AcDbEntity
  8
0
  6
Continuous
 62
     2
370
    13
100
AcDbLine
 10
-222.3002689324821
 20
-278.5037946476291
 30
0.0
 11
-222.3002689324821
 21
-265.1837858827694
 31
0.0
  0
LINE
  5
7E
330
1F
100
AcDbEntity
  8
0
  6
Continuous
 62
     2
370
    13
100
AcDbLine
 10
-101.7002901809901
 20
-278.5037946476291
 30
0.0
 11
-101.7002901809901
 21
-265.1837858827694
 31
0.0
  0
LINE
  5
7F
330
1F
100
AcDbEntity
  8
0
  6
Continuous
 62
     2
370
    13
100
AcDbLine
 10
21.29773922052118
 20
-278.5037946476291
 30
0.0
 11
21.29773922052118
 21
-265.1837858827694
 31
0.0
  0
LINE
  5
80
330
1F
100
AcDbEntity
  8
0
  6
HIDDENX2
 62
     2
370
    13
100
AcDbLine
 10
-248.1315139433573
 20
121.6914481724525
 30
0.0
 11
-320.131552961524
 21
121.6914481724525
 31
0.0
  0
LINE
  5
81
330
1F
100
AcDbEntity
  8
0
  6
HIDDENX2
 62
     2
370
    13
100
AcDbLine
 10
-330.1315363860631
 20
111.6914400039313
 30
0.0
 11
-320.131552961524
 21
121.6914481724525
 31
0.0
  0
LINE
  5
82
330
1F
100
AcDbEntity
  8
0
  6
HIDDENX2
 62
     2
370
    13
100
AcDbLine
 10
-238.131481030854
 20
111.6914400039313
 30
0.0
 11
-248.1315139433573
 21
121.6914481724525
 31
0.0
  0
LINE
  5
83
330
1F
100
AcDbEntity
  8
0
  6
HIDDENX2
 62
     2
370
    13
100
AcDbLine
 10
-330.1315363860631
 20
111.6914400039313
 30
0.0
 11
-330.1315363860631
 21
-2.308539294892398
 31
0.0
  0
LINE
  5
84
330
1F
100
AcDbEntity
  8
0
  6
HIDDENX2
 62
     2
370
    13
100
AcDbLine
 10
-238.131481030854
 20
111.6914400039313
 30
0.0
 11
-238.131481030854
 21
-2.308539294892398
 31
0.0
  0
LINE
  5
85
330
1F
100
AcDbEntity
  8
0
  6
HIDDENX2
 62
     2
370
    13
100
AcDbLine
 10
-238.131481030854
 20
-2.308539294892398
 30
0.0
 11
-330.1315363860631
 21
-2.308539294892398
 31
0.0
  0
LINE
  5
86
330
1F
100
AcDbEntity
  8
0
  6
HIDDENX2
 62
     2
370
    13
100
AcDbLine
 10
20.6584042118775
 20
108.4678682522062
 30
0.0
 11
20.6584042118775
 21
108.5637511827154
 31
0.0
  0
LINE
  5
87
330
1F
100
AcDbEntity
  8
0
  6
HIDDENX2
 62
     2
370
    13
100
AcDbLine
 10
20.63964827347081
 20
108.7318123089135
 30
0.0
 11
10.63961536096758
 21
118.7318204774347
 31
0.0
  0
LINE
  5
88
330
1F
100
AcDbEntity
  8
0
  6
HIDDENX2
 62
     2
370
    13
100
AcDbLine
 10
10.63961536096758
 20
118.7318204774347
 30
0.0
 11
-61.36032468127087
 21
118.7318204774347
 31
0.0
  0
LINE
  5
89
330
1F
100
AcDbEntity
  8
0
  6
HIDDENX2
 62
     2
370
    13
100
AcDbLine
 10
20.63964827347081
 20
-5.268166989910242
 30
0.0
 11
-71.36025861784583
 21
-5.268166989910242
 31
0.0
  0
LINE
  5
8A
330
1F
100
AcDbEntity
  8
0
  6
HIDDENX2
 62
     2
370
    13
100
AcDbLine
 10
20.63964827347081
 20
-5.268166989910242
 30
0.0
 11
20.63964827347081
 21
108.7318123089135
 31
0.0
  0
LINE
  5
8B
330
1F
100
AcDbEntity
  8
0
  6
HIDDENX2
 62
     2
370
    13
100
AcDbLine
 10
-71.47957409937226
 20
108.6125463153512
 30
0.0
 11
-61.36032468127087
 21
118.7318204774347
 31
0.0
  0
LINE
  5
8C
330
1F
100
AcDbEntity
  8
0
  6
HIDDENX2
 62
     2
370
    13
100
AcDbLine
 10
-71.44013219195767
 20
108.6544131330083
 30
0.0
 11
-71.44013219195767
 21
-5.268166989910242
 31
0.0
  0
LINE
  5
8D
330
1F
100
AcDbEntity
  8
0
  6
HIDDENX2
 62
     2
370
    13
100
AcDbLine
 10
197.6396369692084
 20
119.0235025380389
 30
0.0
 11
269.1709754790645
 21
119.0235025380389
 31
0.0
  0
LINE
  5
8E
330
1F
100
AcDbEntity
  8
0
  6
HIDDENX2
 62
     2
370
    13
100
AcDbLine
 10
187.6689504194364
 20
109.0527912442849
 30
0.0
 11
197.6396369692084
 21
119.0235025380389
 31
0.0
  0
LINE
  5
8F
330
1F
100
AcDbEntity
  8
0
  6
HIDDENX2
 62
     2
370
    13
100
AcDbLine
 10
187.6710289139301
 20
-4.976534417270159
 30
0.0
 11
187.6710289139301
 21
109.0509601896119
 31
0.0
  0
LINE
  5
90
330
1F
100
AcDbEntity
  8
0
  6
HIDDENX2
 62
     2
370
    13
100
AcDbLine
 10
187.6710289139301
 20
-4.976534417270159
 30
0.0
 11
279.671034781175
 21
-4.976534417270159
 31
0.0
  0
LINE
  5
91
330
1F
100
AcDbEntity
  8
0
  6
HIDDENX2
 62
     2
370
    13
100
AcDbLine
 10
279.671034781175
 20
108.5234184919464
 30
0.0
 11
279.671034781175
 21
-4.976534417270159
 31
0.0
  0
LINE
  5
92
330
1F
100
AcDbEntity
  8
0
  6
HIDDENX2
 62
     2
370
    13
100
AcDbLine
 10
279.671034781175
 20
108.5234184919464
 30
0.0
 11
269.1709754790645
 21
119.0235025380389
 31
0.0
  0
LINE
  5
93
330
1F
100
AcDbEntity
  8
0
  6
HIDDENX2
 62
     7
370
    13
100
AcDbLine
 10
127.5476064082177
 20
146.7318631444796
 30
0.0
 11
-414.527618748106
 21
146.7318631444796
 31
0.0
  0
LINE
  5
94
330
1F
100
AcDbEntity
  8
0
  6
HIDDENX2
 62
     7
370
    13
100
AcDbLine
 10
166.9973824090994
 20
146.6914314777823
 30
0.0
 11
403.0604150030558
 21
146.6914314777823
 31
0.0
  0
LINE
  5
95
330
1F
100
AcDbEntity
  8
0
  6
HIDDENX2
 62
     7
370
    13
100
AcDbLine
 10
397.6815681813605
 20
-23.26815200046985
 30
0.0
 11
-414.527618748106
 21
-23.26815200046985
 31
0.0
  0
LINE
  5
96
330
1F
100
AcDbEntity
  8
0
  6
HIDDENX2
 62
     7
370
    13
100
AcDbLine
 10
-187.0985026568669
 20
61.69147339327174
 30
0.0
 11
-222.061155461779
 21
61.69147339327174
 31
0.0
  0
LINE
  5
97
330
1F
100
AcDbEntity
  8
0
  6
HIDDENX2
 62
     7
370
    13
100
AcDbLine
 10
-205.9245160207647
 20
146.6913819898182
 30
0.0
 11
-206.3920288179361
 21
146.6913819898182
 31
0.0
  0
LINE
  5
98
330
1F
100
AcDbEntity
  8
0
  6
HIDDENX2
 62
     7
370
    13
100
AcDbLine
 10
227.6466640216968
 20
-19.25200575916097
 30
0.0
 11
227.6466640216968
 21
-15.25199259415967
 31
0.0
  0
LINE
  5
99
330
1F
100
AcDbEntity
  8
0
  6
HIDDENX2
 62
     7
370
    13
100
AcDbLine
 10
221.0466027090733
 20
-15.25199259415967
 30
0.0
 11
221.0466027090733
 21
-19.25200575916097
 31
0.0
  0
LINE
  5
9A
330
1F
100
AcDbEntity
  8
0
  6
HIDDENX2
 62
     7
370
    13
100
AcDbLine
 10
258.4086794550094
 20
86.02334443881409
 30
0.0
 11
258.4086794550094
 21
109.9075473608027
 31
0.0
  0
LINE
  5
9B
330
1F
100
AcDbEntity
  8
0
  6
HIDDENX2
 62
     7
370
    13
100
AcDbLine
 10
298.9151224660745
 20
17.42738452155027
 30
0.0
 11
298.9151224660745
 21
18.53393539958051
 31
0.0
  0
LINE
  5
9C
330
1F
100
AcDbEntity
  8
0
  6
HIDDENX2
 62
     7
370
    13
100
AcDbLine
 10
298.9151224660745
 20
100.4273855115243
 30
0.0
 11
298.9151224660745
 21
101.078919303327
 31
0.0
  0
LINE
  5
9D
330
1F
100
AcDbEntity
  8
0
  6
HIDDENX2
 62
     7
370
    13
100
AcDbLine
 10
331.2141350894526
 20
166.9271095000295
 30
0.0
 11
330.8535657827742
 21
166.9271095000295
 31
0.0
  0
LINE
  5
9E
330
1F
100
AcDbEntity
  8
0
  6
HIDDENX2
 62
     7
370
    13
100
AcDbLine
 10
331.2141350894526
 20
-23.07262505417748
 30
0.0
 11
331.2141350894526
 21
-23.51079148861754
 31
0.0
  0
LINE
  5
9F
330
1F
100
AcDbEntity
  8
0
  6
Continuous
 62
     7
370
    13
100
AcDbLine
 10
-347.5680761809781
 20
-162.5134140708433
 30
0.0
 11
-216.6822096641554
 21
-162.5134140708433
 31
0.0
  0
LINE
  5
A0
330
1F
100
AcDbEntity
  8
0
  6
Continuous
 62
     7
370
    13
100
AcDbLine
 10
-216.6822096641554
 20
-162.5134140708433
 30
0.0
 11
-216.6822096641554
 21
-134.7225694001827
 31
0.0
  0
LINE
  5
A1
330
1F
100
AcDbEntity
  8
0
  6
Continuous
 62
     7
370
    13
100
AcDbLine
 10
-216.6822096641554
 20
-134.7225694001827
 30
0.0
 11
-347.5680761809781
 21
-134.7225694001827
 31
0.0
  0
LINE
  5
A2
330
1F
100
AcDbEntity
  8
0
  6
Continuous
 62
     7
370
    13
100
AcDbLine
 10
-347.5680761809781
 20
-134.7225694001827
 30
0.0
 11
-347.5680761809781
 21
-162.5134140708433
 31
0.0
  0
LINE
  5
A3
330
1F
100
AcDbEntity
  8
0
  6
Continuous
 62
     7
370
    13
100
AcDbLine
 10
-248.1316129192855
 20
144.6914248952817
 30
0.0
 11
-248.1316129192855
 21
137.9053383254795
 31
0.0
  0
LINE
  5
A4
330
1F
100
AcDbEntity
  8
0
  6
Continuous
 62
     7
370
    13
100
AcDbLine
 10
-238.1315800067823
 20
-23.30853417920298
 30
0.0
 11
-235.1316196209955
 21
-23.30853417920298
 31
0.0
  0
LINE
  5
A5
330
1F
100
AcDbEntity
  8
0
  6
Continuous
 62
     7
370
    13
100
AcDbLine
 10
-235.1316196209955
 20
146.6913819898182
 30
0.0
 11
-235.1316196209955
 21
-23.30853417920298
 31
0.0
  0
LINE
  5
A6
330
1F
100
AcDbEntity
  8
0
  6
Continuous
 62
     7
370
    13
100
AcDbLine
 10
-237.1315272275679
 20
146.6913819898182
 30
0.0
 11
-235.1316196209955
 21
146.6913819898182
 31
0.0
  0
LINE
  5
A7
330
1F
100
AcDbEntity
  8
0
  6
Continuous
 62
     7
370
    13
100
AcDbLine
 10
-248.1316129192855
 20
144.6914248952817
 30
0.0
 11
-237.1315272275679
 21
144.6914248952817
 31
0.0
  0
LINE
  5
A8
330
1F
100
AcDbEntity
  8
0
  6
Continuous
 62
     7
370
    13
100
AcDbLine
 10
-246.1315073608566
 20
142.6913193368528
 30
0.0
 11
-237.1315272275679
 21
142.6913193368528
 31
0.0
  0
LINE
  5
A9
330
1F
100
AcDbEntity
  8
0
  6
Continuous
 62
     7
370
    13
100
AcDbLine
 10
-246.1315073608566
 20
142.6913193368528
 30
0.0
 11
-246.1315073608566
 21
131.1914052073844
 31
0.0
  0
LINE
  5
AA
330
1F
100
AcDbEntity
  8
0
  6
Continuous
 62
     7
370
    13
100
AcDbLine
 10
-248.1316129192855
 20
131.1914052073844
 30
0.0
 11
-246.1315073608566
 21
131.1914052073844
 31
0.0
  0
LINE
  5
AB
330
1F
100
AcDbEntity
  8
0
  6
Continuous
 62
     7
370
    13
100
AcDbLine
 10
-238.1315800067823
 20
21.69141597520502
 30
0.0
 11
-237.1315272275679
 21
26.6914571754387
 31
0.0
  0
LINE
  5
AC
330
1F
100
AcDbEntity
  8
0
  6
Continuous
 62
     7
370
    13
100
AcDbLine
 10
-238.1315800067823
 20
31.69137465576205
 30
0.0
 11
-237.1315272275679
 21
26.6914571754387
 31
0.0
  0
LINE
  5
AD
330
1F
100
AcDbEntity
  8
0
  6
Continuous
 62
     7
370
    13
100
AcDbLine
 10
-237.1315272275679
 20
76.69142378609831
 30
0.0
 11
-238.1315800067823
 21
71.6914073298467
 31
0.0
  0
LINE
  5
AE
330
1F
100
AcDbEntity
  8
0
  6
Continuous
 62
     7
370
    13
100
AcDbLine
 10
-238.1315800067823
 20
81.691464986332
 30
0.0
 11
-237.1315272275679
 21
76.69142378609831
 31
0.0
  0
LINE
  5
AF
330
1F
100
AcDbEntity
  8
0
  6
Continuous
 62
     7
370
    13
100
AcDbLine
 10
-237.1315272275679
 20
142.6913193368528
 30
0.0
 11
-237.1315272275679
 21
82.69146827758232
 31
0.0
  0
LINE
  5
B0
330
1F
100
AcDbEntity
  8
0
  6
Continuous
 62
     7
370
    13
100
AcDbLine
 10
-237.1315272275679
 20
70.69140403859637
 30
0.0
 11
-237.1315272275679
 21
32.6914274349765
 31
0.0
  0
LINE
  5
B1
330
1F
100
AcDbEntity
  8
0
  6
Continuous
 62
     7
370
    13
100
AcDbLine
 10
-237.1315272275679
 20
20.6914126839547
 30
0.0
 11
-237.1315272275679
 21
-12.30862169535976
 31
0.0
  0
LINE
  5
B2
330
1F
100
AcDbEntity
  8
0
  6
Continuous
 62
     7
370
    13
100
AcDbLine
 10
-248.1316129192855
 20
136.4774126083648
 30
0.0
 11
-248.1316129192855
 21
131.1914052073844
 31
0.0
  0
LINE
  5
B3
330
1F
100
AcDbEntity
  8
0
  6
Continuous
 62
     7
370
    13
100
AcDbLine
 10
-238.1315800067823
 20
-13.30862498661008
 30
0.0
 11
-238.1315800067823
 21
-23.30853417920298
 31
0.0
  0
LINE
  5
B4
330
1F
100
AcDbEntity
  8
0
  6
Continuous
 62
     7
370
    13
100
AcDbLine
 10
-237.1315272275679
 20
146.6913819898182
 30
0.0
 11
-237.1315272275679
 21
144.6914248952817
 31
0.0
  0
LINE
  5
B5
330
1F
100
AcDbEntity
  8
0
  6
Continuous
 62
     7
370
    13
100
AcDbLine
 10
-312.6315282771466
 20
-14.30860353387834
 30
0.0
 11
-313.631556312379
 21
-14.30860353387834
 31
0.0
  0
LINE
  5
B6
330
1F
100
AcDbEntity
  8
0
  6
Continuous
 62
     7
370
    13
100
AcDbLine
 10
-319.9315226104954
 20
126.8914454917685
 30
0.0
 11
-318.3315519860698
 21
126.8914454917685
 31
0.0
  0
LINE
  5
B7
330
1F
100
AcDbEntity
  8
0
  6
Continuous
 62
     7
370
    13
100
AcDbLine
 10
-320.9315259017458
 20
129.1374072560138
 30
0.0
 11
-320.9315259017458
 21
127.8914487830189
 31
0.0
  0
LINE
  5
B8
330
1F
100
AcDbEntity
  8
0
  6
Continuous
 62
     7
370
    13
100
AcDbLine
 10
-322.4315555826033
 20
129.2213883311488
 30
0.0
 11
-322.4315555826033
 21
127.6914184319903
 31
0.0
  0
LINE
  5
B9
330
1F
100
AcDbEntity
  8
0
  6
Continuous
 62
     7
370
    13
100
AcDbLine
 10
-320.2315433930562
 20
130.6914777937054
 30
0.0
 11
-320.2315433930562
 21
130.2284189133061
 31
0.0
  0
LINE
  5
BA
330
1F
100
AcDbEntity
  8
0
  6
Continuous
 62
     7
370
    13
100
AcDbLine
 10
-317.3315486948195
 20
129.1374072560138
 30
0.0
 11
-317.3315486948195
 21
127.8914487830189
 31
0.0
  0
LINE
  5
BB
330
1F
100
AcDbEntity
  8
0
  6
Continuous
 62
     7
370
    13
100
AcDbLine
 10
-315.831519013962
 20
129.2213883311488
 30
0.0
 11
-315.831519013962
 21
127.6914184319903
 31
0.0
  0
LINE
  5
BC
330
1F
100
AcDbEntity
  8
0
  6
Continuous
 62
     7
370
    13
100
AcDbLine
 10
-318.0315559474911
 20
130.6914777937054
 30
0.0
 11
-318.0315559474911
 21
130.2284189133061
 31
0.0
  0
LINE
  5
BD
330
1F
100
AcDbEntity
  8
0
  6
Continuous
 62
     7
370
    13
100
AcDbLine
 10
-265.9315428348345
 20
144.4913945442531
 30
0.0
 11
-264.3315474664269
 21
144.4913945442531
 31
0.0
  0
LINE
  5
BE
330
1F
100
AcDbEntity
  8
0
  6
Continuous
 62
     7
370
    13
100
AcDbLine
 10
-266.9314966381207
 20
142.2454327800078
 30
0.0
 11
-266.9314966381207
 21
143.4913912530028
 31
0.0
  0
LINE
  5
BF
330
1F
100
AcDbEntity
  8
0
  6
Continuous
 62
     7
370
    13
100
AcDbLine
 10
-268.4315758069424
 20
142.1614517048729
 30
0.0
 11
-268.4315758069424
 21
143.6914216040313
 31
0.0
  0
LINE
  5
C0
330
1F
100
AcDbEntity
  8
0
  6
Continuous
 62
     7
370
    13
100
AcDbLine
 10
-266.2315883613774
 20
140.6913622423162
 30
0.0
 11
-266.2315883613774
 21
141.1544211227156
 31
0.0
  0
LINE
  5
C1
330
1F
100
AcDbEntity
  8
0
  6
Continuous
 62
     7
370
    13
100
AcDbLine
 10
-263.3314946872124
 20
142.2454327800078
 30
0.0
 11
-263.3314946872124
 21
143.4913912530028
 31
0.0
  0
LINE
  5
C2
330
1F
100
AcDbEntity
  8
0
  6
Continuous
 62
     7
370
    13
100
AcDbLine
 10
-261.831514494319
 20
142.1614517048729
 30
0.0
 11
-261.831514494319
 21
143.6914216040313
 31
0.0
  0
LINE
  5
C3
330
1F
100
AcDbEntity
  8
0
  6
Continuous
 62
     7
370
    13
100
AcDbLine
 10
-264.031501939884
 20
140.6913622423162
 30
0.0
 11
-264.031501939884
 21
141.1544211227156
 31
0.0
  0
LINE
  5
C4
330
1F
100
AcDbEntity
  8
0
  6
Continuous
 62
     7
370
    13
100
AcDbLine
 10
-318.0315559474911
 20
-17.30866289559344
 30
0.0
 11
-318.0315559474911
 21
-17.77157331210037
 31
0.0
  0
LINE
  5
C5
330
1F
100
AcDbEntity
  8
0
  6
Continuous
 62
     7
370
    13
100
AcDbLine
 10
-315.831519013962
 20
-18.77855440629355
 30
0.0
 11
-315.831519013962
 21
-18.80859360052273
 31
0.0
  0
LINE
  5
C6
330
1F
100
AcDbEntity
  8
0
  6
Continuous
 62
     7
370
    13
100
AcDbLine
 10
-317.3315486948195
 20
-18.86258496939263
 30
0.0
 11
-317.3315486948195
 21
-20.1085434423876
 31
0.0
  0
LINE
  5
C7
330
1F
100
AcDbEntity
  8
0
  6
Continuous
 62
     7
370
    13
100
AcDbLine
 10
-320.2315433930562
 20
-17.30866289559344
 30
0.0
 11
-320.2315433930562
 21
-17.77157331210037
 31
0.0
  0
LINE
  5
C8
330
1F
100
AcDbEntity
  8
0
  6
Continuous
 62
     7
370
    13
100
AcDbLine
 10
-322.4315555826033
 20
-18.77855440629355
 30
0.0
 11
-322.4315555826033
 21
-20.30862328138028
 31
0.0
  0
LINE
  5
C9
330
1F
100
AcDbEntity
  8
0
  6
Continuous
 62
     7
370
    13
100
AcDbLine
 10
-320.9315259017458
 20
-18.86258496939263
 30
0.0
 11
-320.9315259017458
 21
-20.1085434423876
 31
0.0
  0
LINE
  5
CA
330
1F
100
AcDbEntity
  8
0
  6
Continuous
 62
     7
370
    13
100
AcDbLine
 10
-319.9315226104954
 20
-21.10864570956619
 30
0.0
 11
-318.3315519860698
 21
-21.10864570956619
 31
0.0
  0
LINE
  5
CB
330
1F
100
AcDbEntity
  8
0
  6
Continuous
 62
     7
370
    13
100
AcDbLine
 10
-291.6314839048719
 20
143.6914216040313
 30
0.0
 11
-292.631437708158
 21
143.6914216040313
 31
0.0
  0
LINE
  5
CC
330
1F
100
AcDbEntity
  8
0
  6
Continuous
 62
     7
370
    13
100
AcDbLine
 10
-291.6314839048719
 20
143.6914216040313
 30
0.0
 11
-291.6314839048719
 21
139.6914084390301
 31
0.0
  0
LINE
  5
CD
330
1F
100
AcDbEntity
  8
0
  6
Continuous
 62
     7
370
    13
100
AcDbLine
 10
-291.6314839048719
 20
139.6914084390301
 30
0.0
 11
-292.631437708158
 21
139.6914084390301
 31
0.0
  0
LINE
  5
CE
330
1F
100
AcDbEntity
  8
0
  6
Continuous
 62
     7
370
    13
100
AcDbLine
 10
-292.631437708158
 20
139.6914084390301
 30
0.0
 11
-292.631437708158
 21
138.6914051477797
 31
0.0
  0
LINE
  5
CF
330
1F
100
AcDbEntity
  8
0
  6
Continuous
 62
     7
370
    13
100
AcDbLine
 10
-290.1315037119784
 20
138.6914051477797
 30
0.0
 11
-292.631437708158
 21
138.6914051477797
 31
0.0
  0
LINE
  5
D0
330
1F
100
AcDbEntity
  8
0
  6
Continuous
 62
     7
370
    13
100
AcDbLine
 10
-289.6314773223712
 20
144.6914248952817
 30
0.0
 11
-289.6314773223712
 21
140.6913622423162
 31
0.0
  0
LINE
  5
D1
330
1F
100
AcDbEntity
  8
0
  6
Continuous
 62
     7
370
    13
100
AcDbLine
 10
-289.6314773223712
 20
140.6913622423162
 30
0.0
 11
-288.1314971294778
 21
140.6913622423162
 31
0.0
  0
LINE
  5
D2
330
1F
100
AcDbEntity
  8
0
  6
Continuous
 62
     7
370
    13
100
AcDbLine
 10
-314.8315652106758
 20
-19.80854740380892
 30
0.0
 11
-314.6315101156652
 21
-19.80854740380892
 31
0.0
  0
LINE
  5
D3
330
1F
100
AcDbEntity
  8
0
  6
Continuous
 62
     7
370
    13
100
AcDbLine
 10
-289.6314773223712
 20
-14.30860353387834
 30
0.0
 11
-290.6315301015857
 21
-14.30860353387834
 31
0.0
  0
LINE
  5
D4
330
1F
100
AcDbEntity
  8
0
  6
Continuous
 62
     7
370
    13
100
AcDbLine
 10
-289.6314773223712
 20
-21.30857708466647
 30
0.0
 11
-289.6314773223712
 21
-14.30860353387834
 31
0.0
  0
LINE
  5
D5
330
1F
100
AcDbEntity
  8
0
  6
Continuous
 62
     7
370
    13
100
AcDbLine
 10
-292.631437708158
 20
-20.30862328138028
 30
0.0
 11
-292.631437708158
 21
-22.80860676552402
 31
0.0
  0
LINE
  5
D6
330
1F
100
AcDbEntity
  8
0
  6
Continuous
 62
     7
370
    13
100
AcDbLine
 10
-310.6314722066818
 20
-20.30862328138028
 30
0.0
 11
-310.6314722066818
 21
-22.80860676552402
 31
0.0
  0
LINE
  5
D7
330
1F
100
AcDbEntity
  8
0
  6
Continuous
 62
     7
370
    13
100
AcDbLine
 10
-313.631556312379
 20
-18.80859360052273
 30
0.0
 11
-313.631556312379
 21
-14.30860353387834
 31
0.0
  0
LINE
  5
D8
330
1F
100
AcDbEntity
  8
0
  6
Continuous
 62
     7
370
    13
100
AcDbLine
 10
-310.6314722066818
 20
-16.30856062841485
 30
0.0
 11
-311.6315744738604
 21
-16.30856062841485
 31
0.0
  0
LINE
  5
D9
330
1F
100
AcDbEntity
  8
0
  6
Continuous
 62
     7
370
    13
100
AcDbLine
 10
-291.6314839048719
 20
-16.30856062841485
 30
0.0
 11
-292.631437708158
 21
-16.30856062841485
 31
0.0
  0
LINE
  5
DA
330
1F
100
AcDbEntity
  8
0
  6
Continuous
 62
     7
370
    13
100
AcDbLine
 10
-291.6314839048719
 20
-20.30862328138028
 30
0.0
 11
-291.6314839048719
 21
-16.30856062841485
 31
0.0
  0
LINE
  5
DB
330
1F
100
AcDbEntity
  8
0
  6
Continuous
 62
     7
370
    13
100
AcDbLine
 10
-311.6315744738604
 20
-20.30862328138028
 30
0.0
 11
-311.6315744738604
 21
-16.30856062841485
 31
0.0
  0
LINE
  5
DC
330
1F
100
AcDbEntity
  8
0
  6
Continuous
 62
     7
370
    13
100
AcDbLine
 10
-310.6314722066818
 20
-20.30862328138028
 30
0.0
 11
-311.6315744738604
 21
-20.30862328138028
 31
0.0
  0
LINE
  5
DD
330
1F
100
AcDbEntity
  8
0
  6
Continuous
 62
     7
370
    13
100
AcDbLine
 10
-291.6314839048719
 20
-20.30862328138028
 30
0.0
 11
-292.631437708158
 21
-20.30862328138028
 31
0.0
  0
LINE
  5
DE
330
1F
100
AcDbEntity
  8
0
  6
Continuous
 62
     7
370
    13
100
AcDbLine
 10
-286.1314905469771
 20
-19.30861999012996
 30
0.0
 11
-286.1314905469771
 21
-21.30857708466647
 31
0.0
  0
LINE
  5
DF
330
1F
100
AcDbEntity
  8
0
  6
Continuous
 62
     7
370
    13
100
AcDbLine
 10
-285.131536743691
 20
-18.30866618684377
 30
0.0
 11
-284.6315103540837
 21
-18.30866618684377
 31
0.0
  0
LINE
  5
E0
330
1F
100
AcDbEntity
  8
0
  6
Continuous
 62
     7
370
    13
100
AcDbLine
 10
-289.6314773223712
 20
-21.30857708466647
 30
0.0
 11
-286.1314905469771
 21
-21.30857708466647
 31
0.0
  0
LINE
  5
E1
330
1F
100
AcDbEntity
  8
0
  6
Continuous
 62
     7
370
    13
100
AcDbLine
 10
-329.6314605084917
 20
-21.30857708466647
 30
0.0
 11
-323.4315093858895
 21
-21.30857708466647
 31
0.0
  0
LINE
  5
E2
330
1F
100
AcDbEntity
  8
0
  6
Continuous
 62
     7
370
    13
100
AcDbLine
 10
-312.6315282771466
 20
-6.808529361536785
 30
0.0
 11
-312.6315282771466
 21
-14.30860353387834
 31
0.0
  0
LINE
  5
E3
330
1F
100
AcDbEntity
  8
0
  6
Continuous
 62
     7
370
    13
100
AcDbLine
 10
-310.6314722066818
 20
-6.808529361536785
 30
0.0
 11
-310.6314722066818
 21
-16.30856062841485
 31
0.0
  0
LINE
  5
E4
330
1F
100
AcDbEntity
  8
0
  6
Continuous
 62
     7
370
    13
100
AcDbLine
 10
-292.1315102944791
 20
-23.30853417920298
 30
0.0
 11
-284.6315103540837
 21
-23.30853417920298
 31
0.0
  0
LINE
  5
E5
330
1F
100
AcDbEntity
  8
0
  6
Continuous
 62
     7
370
    13
100
AcDbLine
 10
-292.631437708158
 20
-6.808529361536785
 30
0.0
 11
-292.631437708158
 21
-16.30856062841485
 31
0.0
  0
LINE
  5
E6
330
1F
100
AcDbEntity
  8
0
  6
Continuous
 62
     7
370
    13
100
AcDbLine
 10
-290.6315301015857
 20
-6.808529361536785
 30
0.0
 11
-290.6315301015857
 21
-14.30860353387834
 31
0.0
  0
LINE
  5
E7
330
1F
100
AcDbEntity
  8
0
  6
Continuous
 62
     7
370
    13
100
AcDbLine
 10
-309.1315415017525
 20
-3.308592074106855
 30
0.0
 11
-294.1315168769797
 21
-3.308592074106855
 31
0.0
  0
LINE
  5
E8
330
1F
100
AcDbEntity
  8
0
  6
Continuous
 62
     7
370
    13
100
AcDbLine
 10
-309.1315415017525
 20
-5.308648144571634
 30
0.0
 11
-294.1315168769797
 21
-5.308648144571634
 31
0.0
  0
LINE
  5
E9
330
1F
100
AcDbEntity
  8
0
  6
Continuous
 62
     7
370
    13
100
AcDbLine
 10
-284.1315829404048
 20
-18.80859360052273
 30
0.0
 11
-284.1315829404048
 21
-22.80860676552402
 31
0.0
  0
LINE
  5
EA
330
1F
100
AcDbEntity
  8
0
  6
Continuous
 62
     7
370
    13
100
AcDbLine
 10
-333.6314984174751
 20
-23.30853417920298
 30
0.0
 11
-311.131498596289
 21
-23.30853417920298
 31
0.0
  0
LINE
  5
EB
330
1F
100
AcDbEntity
  8
0
  6
Continuous
 62
     7
370
    13
100
AcDbLine
 10
-334.1315742950464
 20
131.6914315969916
 30
0.0
 11
-334.1315742950464
 21
-22.80860676552402
 31
0.0
  0
LINE
  5
EC
330
1F
100
AcDbEntity
  8
0
  6
Continuous
 62
     7
370
    13
100
AcDbLine
 10
-237.6316525931034
 20
130.6914777937054
 30
0.0
 11
-237.6316525931034
 21
125.6914118494897
 31
0.0
  0
LINE
  5
ED
330
1F
100
AcDbEntity
  8
0
  6
Continuous
 62
     7
370
    13
100
AcDbLine
 10
-292.1315102944791
 20
146.6913819898182
 30
0.0
 11
-248.6315403329645
 21
146.6913819898182
 31
0.0
  0
LINE
  5
EE
330
1F
100
AcDbEntity
  8
0
  6
Continuous
 62
     7
370
    13
100
AcDbLine
 10
-332.1314687366175
 20
130.1914019161341
 30
0.0
 11
-332.1314687366175
 21
126.69141514074
 31
0.0
  0
LINE
  5
EF
330
1F
100
AcDbEntity
  8
0
  6
Continuous
 62
     7
370
    13
100
AcDbLine
 10
-239.6315601996757
 20
129.1914481128479
 30
0.0
 11
-239.6315601996757
 21
125.6914118494897
 31
0.0
  0
LINE
  5
F0
330
1F
100
AcDbEntity
  8
0
  6
Continuous
 62
     7
370
    13
100
AcDbLine
 10
-248.1316129192855
 20
146.1914545761392
 30
0.0
 11
-248.1316129192855
 21
137.6914513444935
 31
0.0
  0
LINE
  5
F1
330
1F
100
AcDbEntity
  8
0
  6
Continuous
 62
     7
370
    13
100
AcDbLine
 10
-250.1315205258579
 20
142.1913919231738
 30
0.0
 11
-250.1315205258579
 21
125.6914118494897
 31
0.0
  0
LINE
  5
F2
330
1F
100
AcDbEntity
  8
0
  6
Continuous
 62
     7
370
    13
100
AcDbLine
 10
-248.1316129192855
 20
131.1914052073844
 30
0.0
 11
-238.1315800067823
 21
131.1914052073844
 31
0.0
  0
LINE
  5
F3
330
1F
100
AcDbEntity
  8
0
  6
Continuous
 62
     7
370
    13
100
AcDbLine
 10
-248.1316129192855
 20
129.1914481128479
 30
0.0
 11
-248.1316129192855
 21
125.6914118494897
 31
0.0
  0
LINE
  5
F4
330
1F
100
AcDbEntity
  8
0
  6
Continuous
 62
     7
370
    13
100
AcDbLine
 10
-289.6314773223712
 20
144.6914248952817
 30
0.0
 11
-269.4315296102286
 21
144.6914248952817
 31
0.0
  0
LINE
  5
F5
330
1F
100
AcDbEntity
  8
0
  6
Continuous
 62
     7
370
    13
100
AcDbLine
 10
-248.1316129192855
 20
129.1914481128479
 30
0.0
 11
-239.6315601996757
 21
129.1914481128479
 31
0.0
  0
LINE
  5
F6
330
1F
100
AcDbEntity
  8
0
  6
Continuous
 62
     7
370
    13
100
AcDbLine
 10
-260.8314617151045
 20
144.6914248952817
 30
0.0
 11
-252.6314545220375
 21
144.6914248952817
 31
0.0
  0
LINE
  5
F7
330
1F
100
AcDbEntity
  8
0
  6
Continuous
 62
     7
370
    13
100
AcDbLine
 10
-248.4315594699001
 20
137.6914513444935
 30
0.0
 11
-248.4315594699001
 21
136.6914480532432
 31
0.0
  0
LINE
  5
F8
330
1F
100
AcDbEntity
  8
0
  6
Continuous
 62
     7
370
    13
100
AcDbLine
 10
-248.4315594699001
 20
137.6914513444935
 30
0.0
 11
-248.1316129192855
 21
137.6914513444935
 31
0.0
  0
LINE
  5
F9
330
1F
100
AcDbEntity
  8
0
  6
Continuous
 62
     7
370
    13
100
AcDbLine
 10
-248.4315594699001
 20
136.6914480532432
 30
0.0
 11
-248.1316129192855
 21
136.6914480532432
 31
0.0
  0
LINE
  5
FA
330
1F
100
AcDbEntity
  8
0
  6
Continuous
 62
     7
370
    13
100
AcDbLine
 10
-248.1316129192855
 20
136.6914480532432
 30
0.0
 11
-248.1316129192855
 21
131.1914052073844
 31
0.0
  0
LINE
  5
FB
330
1F
100
AcDbEntity
  8
0
  6
Continuous
 62
     7
370
    13
100
AcDbLine
 10
-334.1315742950464
 20
131.6914315969916
 30
0.0
 11
-331.1314901893493
 21
131.6914315969916
 31
0.0
  0
LINE
  5
FC
330
1F
100
AcDbEntity
  8
0
  6
Continuous
 62
     7
370
    13
100
AcDbLine
 10
-292.631437708158
 20
146.1914545761392
 30
0.0
 11
-292.631437708158
 21
143.6914216040313
 31
0.0
  0
LINE
  5
FD
330
1F
100
AcDbEntity
  8
0
  6
Continuous
 62
     7
370
    13
100
AcDbLine
 10
-290.1315037119784
 20
138.6914051477797
 30
0.0
 11
-290.1315037119784
 21
128.1914448215975
 31
0.0
  0
LINE
  5
FE
330
1F
100
AcDbEntity
  8
0
  6
Continuous
 62
     7
370
    13
100
AcDbLine
 10
-288.1314971294778
 20
140.6913622423162
 30
0.0
 11
-288.1314971294778
 21
128.1914448215975
 31
0.0
  0
LINE
  5
FF
330
1F
100
AcDbEntity
  8
0
  6
Continuous
 62
     7
370
    13
100
AcDbLine
 10
-330.6315627756703
 20
131.1914052073844
 30
0.0
 11
-330.6315627756703
 21
130.1914019161341
 31
0.0
  0
LINE
  5
100
330
1F
100
AcDbEntity
  8
0
  6
Continuous
 62
     7
370
    13
100
AcDbLine
 10
-332.1314687366175
 20
130.1914019161341
 30
0.0
 11
-330.6315627756703
 21
130.1914019161341
 31
0.0
  0
LINE
  5
101
330
1F
100
AcDbEntity
  8
0
  6
Continuous
 62
     7
370
    13
100
AcDbLine
 10
-332.1314687366175
 20
126.69141514074
 30
0.0
 11
-323.4315093858895
 21
126.69141514074
 31
0.0
  0
LINE
  5
102
330
1F
100
AcDbEntity
  8
0
  6
Continuous
 62
     7
370
    13
100
AcDbLine
 10
-329.6314605084917
 20
124.6914580462035
 30
0.0
 11
-291.6314839048719
 21
124.6914580462035
 31
0.0
  0
LINE
  5
103
330
1F
100
AcDbEntity
  8
0
  6
Continuous
 62
     7
370
    13
100
AcDbLine
 10
-332.1314687366175
 20
122.1914250740956
 30
0.0
 11
-332.1314687366175
 21
-18.80859360052273
 31
0.0
  0
LINE
  5
104
330
1F
100
AcDbEntity
  8
0
  6
Continuous
 62
     7
370
    13
100
AcDbLine
 10
-299.9315805053993
 20
128.6913722352765
 30
0.0
 11
-299.9315805053993
 21
126.69141514074
 31
0.0
  0
LINE
  5
105
330
1F
100
AcDbEntity
  8
0
  6
Continuous
 62
     7
370
    13
100
AcDbLine
 10
-298.3314614170813
 20
128.6913722352765
 30
0.0
 11
-298.3314614170813
 21
126.69141514074
 31
0.0
  0
LINE
  5
106
330
1F
100
AcDbEntity
  8
0
  6
Continuous
 62
     7
370
    13
100
AcDbLine
 10
-294.6025185756225
 20
129.5054492452764
 30
0.0
 11
-298.3314614170813
 21
128.6913722352765
 31
0.0
  0
LINE
  5
107
330
1F
100
AcDbEntity
  8
0
  6
Continuous
 62
     7
370
    13
100
AcDbLine
 10
-299.9315805053993
 20
128.6913722352765
 30
0.0
 11
-303.660473858894
 21
129.5054492452764
 31
0.0
  0
LINE
  5
108
330
1F
100
AcDbEntity
  8
0
  6
Continuous
 62
     7
370
    13
100
AcDbLine
 10
-298.3314614170813
 20
126.69141514074
 30
0.0
 11
-291.6314839048719
 21
126.69141514074
 31
0.0
  0
LINE
  5
109
330
1F
100
AcDbEntity
  8
0
  6
Continuous
 62
     7
370
    13
100
AcDbLine
 10
-314.8315652106758
 20
126.69141514074
 30
0.0
 11
-299.9315805053993
 21
126.69141514074
 31
0.0
  0
LINE
  5
10A
330
1F
100
AcDbEntity
  8
0
  6
Continuous
 62
     7
370
    13
100
AcDbLine
 10
-310.6314722066818
 20
-23.30853417920298
 30
0.0
 11
-292.631437708158
 21
-23.30853417920298
 31
0.0
  0
LINE
  5
10B
330
1F
100
AcDbEntity
  8
0
  6
Continuous
 62
     7
370
    13
100
AcDbLine
 10
-309.3614378391358
 20
-5.508579519671912
 30
0.0
 11
-308.6315151121453
 21
-5.508579519671912
 31
0.0
  0
LINE
  5
10C
330
1F
100
AcDbEntity
  8
0
  6
Continuous
 62
     7
370
    13
100
AcDbLine
 10
-310.6314722066818
 20
-20.40856422494835
 30
0.0
 11
-310.6314722066818
 21
-23.30853417920298
 31
0.0
  0
LINE
  5
10D
330
1F
100
AcDbEntity
  8
0
  6
Continuous
 62
     7
370
    13
100
AcDbLine
 10
-292.631437708158
 20
-20.40856422494835
 30
0.0
 11
-292.631437708158
 21
-23.30853417920298
 31
0.0
  0
LINE
  5
10E
330
1F
100
AcDbEntity
  8
0
  6
Continuous
 62
     7
370
    13
100
AcDbLine
 10
-309.761548029157
 20
-22.30858037591679
 30
0.0
 11
-293.5014856055932
 21
-22.30858037591679
 31
0.0
  0
LINE
  5
10F
330
1F
100
AcDbEntity
  8
0
  6
Continuous
 62
     7
370
    13
100
AcDbLine
 10
-295.131495424248
 20
-6.008655397243274
 30
0.0
 11
-295.131495424248
 21
-6.508582810922235
 31
0.0
  0
LINE
  5
110
330
1F
100
AcDbEntity
  8
0
  6
Continuous
 62
     7
370
    13
100
AcDbLine
 10
-308.1314392345739
 20
-6.008655397243274
 30
0.0
 11
-308.1314392345739
 21
-6.508582810922235
 31
0.0
  0
LINE
  5
111
330
1F
100
AcDbEntity
  8
0
  6
Continuous
 62
     7
370
    13
100
AcDbLine
 10
-309.3496102157078
 20
-6.508582810922235
 30
0.0
 11
-308.1314392345739
 21
-6.508582810922235
 31
0.0
  0
LINE
  5
112
330
1F
100
AcDbEntity
  8
0
  6
Continuous
 62
     7
370
    13
100
AcDbLine
 10
-295.131495424248
 20
-6.508582810922235
 30
0.0
 11
-293.9135223949706
 21
-6.508582810922235
 31
0.0
  0
LINE
  5
113
330
1F
100
AcDbEntity
  8
0
  6
Continuous
 62
     7
370
    13
100
AcDbLine
 10
-294.631568010569
 20
-5.508579519671912
 30
0.0
 11
-293.9014225877399
 21
-5.508579519671912
 31
0.0
  0
LINE
  5
114
330
1F
100
AcDbEntity
  8
0
  6
Continuous
 62
     7
370
    13
100
AcDbLine
 10
-292.631437708158
 20
-20.40856422494835
 30
0.0
 11
-292.3414877262985
 21
-20.29261392498302
 31
0.0
  0
LINE
  5
115
330
1F
100
AcDbEntity
  8
0
  6
Continuous
 62
     7
370
    13
100
AcDbLine
 10
-310.6314722066818
 20
-20.40856422494835
 30
0.0
 11
-310.9215706524337
 21
-20.29261392498302
 31
0.0
  0
LINE
  5
116
330
1F
100
AcDbEntity
  8
0
  6
Continuous
 62
     7
370
    13
100
AcDbLine
 10
-309.761548029157
 20
-22.30858037591679
 30
0.0
 11
-309.3496102157078
 21
-6.508582810922235
 31
0.0
  0
LINE
  5
117
330
1F
100
AcDbEntity
  8
0
  6
Continuous
 62
     7
370
    13
100
AcDbLine
 10
-293.5014856055932
 20
-22.30858037591679
 30
0.0
 11
-293.9135223949706
 21
-6.508582810922235
 31
0.0
  0
LINE
  5
118
330
1F
100
AcDbEntity
  8
0
  6
Continuous
 62
     7
370
    13
100
AcDbLine
 10
-292.631437708158
 20
-15.30860682512866
 30
0.0
 11
-292.1546211737295
 21
-19.98353684498579
 31
0.0
  0
LINE
  5
119
330
1F
100
AcDbEntity
  8
0
  6
Continuous
 62
     7
370
    13
100
AcDbLine
 10
-292.9014687844538
 20
-6.477553857410385
 30
0.0
 11
-292.631437708158
 21
-15.30860682512866
 31
0.0
  0
LINE
  5
11A
330
1F
100
AcDbEntity
  8
0
  6
Continuous
 62
     7
370
    13
100
AcDbLine
 10
-311.1084619489848
 20
-19.98353684498579
 30
0.0
 11
-310.6314722066818
 21
-15.30860682512866
 31
0.0
  0
LINE
  5
11B
330
1F
100
AcDbEntity
  8
0
  6
Continuous
 62
     7
370
    13
100
AcDbLine
 10
-310.6314722066818
 20
-15.30860682512866
 30
0.0
 11
-310.3615401063144
 21
-6.477553857410385
 31
0.0
  0
LINE
  5
11C
330
1F
100
AcDbEntity
  8
0
  6
Continuous
 62
     7
370
    13
100
AcDbLine
 10
-311.8315058489607
 20
130.7334435872908
 30
0.0
 11
-308.6685321093173
 21
127.191342554419
 31
0.0
  0
LINE
  5
11D
330
1F
100
AcDbEntity
  8
0
  6
Continuous
 62
     7
370
    13
100
AcDbLine
 10
-310.6314722066818
 20
131.1914052073844
 30
0.0
 11
-308.1314392345739
 21
128.3913761966978
 31
0.0
  0
LINE
  5
11E
330
1F
100
AcDbEntity
  8
0
  6
Continuous
 62
     7
370
    13
100
AcDbLine
 10
-311.8315058489607
 20
138.4913747967512
 30
0.0
 11
-311.8315058489607
 21
130.7334435872908
 31
0.0
  0
LINE
  5
11F
330
1F
100
AcDbEntity
  8
0
  6
Continuous
 62
     7
370
    13
100
AcDbLine
 10
-334.1315742950464
 20
131.6914315969916
 30
0.0
 11
-332.1815505563209
 21
131.6914315969916
 31
0.0
  0
LINE
  5
120
330
1F
100
AcDbEntity
  8
0
  6
Continuous
 62
     7
370
    13
100
AcDbLine
 10
-334.1315742950464
 20
146.1914545761392
 30
0.0
 11
-334.1315742950464
 21
131.6914315969916
 31
0.0
  0
LINE
  5
121
330
1F
100
AcDbEntity
  8
0
  6
Continuous
 62
     7
370
    13
100
AcDbLine
 10
-330.6315627756703
 20
131.6914315969916
 30
0.0
 11
-330.6315627756703
 21
130.1914019161341
 31
0.0
  0
LINE
  5
122
330
1F
100
AcDbEntity
  8
0
  6
Continuous
 62
     7
370
    13
100
AcDbLine
 10
-329.6314605084917
 20
132.1913590106706
 30
0.0
 11
-329.6314605084917
 21
127.6914184319903
 31
0.0
  0
LINE
  5
123
330
1F
100
AcDbEntity
  8
0
  6
Continuous
 62
     7
370
    13
100
AcDbLine
 10
-333.6314984174751
 20
146.6913819898182
 30
0.0
 11
-311.131498596289
 21
146.6913819898182
 31
0.0
  0
LINE
  5
124
330
1F
100
AcDbEntity
  8
0
  6
Continuous
 62
     7
370
    13
100
AcDbLine
 10
-311.6315744738604
 20
143.6914216040313
 30
0.0
 11
-310.6314722066818
 21
143.6914216040313
 31
0.0
  0
LINE
  5
125
330
1F
100
AcDbEntity
  8
0
  6
Continuous
 62
     7
370
    13
100
AcDbLine
 10
-332.1815505563209
 20
144.7413582510926
 30
0.0
 11
-332.1815505563209
 21
134.1914645690995
 31
0.0
  0
LINE
  5
126
330
1F
100
AcDbEntity
  8
0
  6
Continuous
 62
     7
370
    13
100
AcDbLine
 10
-308.6685321093173
 20
127.191342554419
 30
0.0
 11
-300.631587758071
 21
127.191342554419
 31
0.0
  0
LINE
  5
127
330
1F
100
AcDbEntity
  8
0
  6
Continuous
 62
     7
370
    13
100
AcDbLine
 10
-308.1314392345739
 20
128.3913761966978
 30
0.0
 11
-301.1315151717499
 21
128.3913761966978
 31
0.0
  0
LINE
  5
128
330
1F
100
AcDbEntity
  8
0
  6
Continuous
 62
     7
370
    13
100
AcDbLine
 10
-300.1315118804996
 20
128.2914105091477
 30
0.0
 11
-300.1315118804996
 21
127.6914184319903
 31
0.0
  0
LINE
  5
129
330
1F
100
AcDbEntity
  8
0
  6
Continuous
 62
     7
370
    13
100
AcDbLine
 10
-301.1315151717499
 20
128.7914368987549
 30
0.0
 11
-301.1315151717499
 21
128.3913761966978
 31
0.0
  0
LINE
  5
12A
330
1F
100
AcDbEntity
  8
0
  6
Continuous
 62
     7
370
    13
100
AcDbLine
 10
-332.1815505563209
 20
144.7413582510926
 30
0.0
 11
-312.8314596522468
 21
144.7413582510926
 31
0.0
  0
LINE
  5
12B
330
1F
100
AcDbEntity
  8
0
  6
Continuous
 62
     7
370
    13
100
AcDbLine
 10
-310.6314722066818
 20
146.1914545761392
 30
0.0
 11
-310.6314722066818
 21
143.6914216040313
 31
0.0
  0
LINE
  5
12C
330
1F
100
AcDbEntity
  8
0
  6
Continuous
 62
     7
370
    13
100
AcDbLine
 10
-301.1315151717499
 20
128.7914368987549
 30
0.0
 11
-300.631587758071
 21
128.7914368987549
 31
0.0
  0
LINE
  5
12D
330
1F
100
AcDbEntity
  8
0
  6
Continuous
 62
     7
370
    13
100
AcDbLine
 10
-331.2804984493559
 20
129.8663649677037
 30
0.0
 11
-330.6315627756703
 21
130.1914019161341
 31
0.0
  0
LINE
  5
12E
330
1F
100
AcDbEntity
  8
0
  6
Continuous
 62
     7
370
    13
100
AcDbLine
 10
-330.5925415159509
 20
127.4984153718688
 30
0.0
 11
-331.4235928976486
 21
129.4823878539901
 31
0.0
  0
LINE
  5
12F
330
1F
100
AcDbEntity
  8
0
  6
Continuous
 62
     7
370
    13
100
AcDbLine
 10
-331.6814746787495
 20
132.1913590106706
 30
0.0
 11
-331.1314901893493
 21
132.1913590106706
 31
0.0
  0
LINE
  5
130
330
1F
100
AcDbEntity
  8
0
  6
Continuous
 62
     7
370
    13
100
AcDbLine
 10
-331.1815472650705
 20
133.1913623019209
 30
0.0
 11
-330.6315627756703
 21
133.1913623019209
 31
0.0
  0
LINE
  5
131
330
1F
100
AcDbEntity
  8
0
  6
Continuous
 62
     7
370
    13
100
AcDbLine
 10
-311.6315744738604
 20
139.6914084390301
 30
0.0
 11
-310.6314722066818
 21
139.6914084390301
 31
0.0
  0
LINE
  5
132
330
1F
100
AcDbEntity
  8
0
  6
Continuous
 62
     7
370
    13
100
AcDbLine
 10
-311.6315744738604
 20
139.6914084390301
 30
0.0
 11
-311.6315744738604
 21
143.6914216040313
 31
0.0
  0
LINE
  5
133
330
1F
100
AcDbEntity
  8
0
  6
Continuous
 62
     7
370
    13
100
AcDbLine
 10
-311.8315058489607
 20
138.4913747967512
 30
0.0
 11
-312.8314596522468
 21
138.4913747967512
 31
0.0
  0
LINE
  5
134
330
1F
100
AcDbEntity
  8
0
  6
Continuous
 62
     7
370
    13
100
AcDbLine
 10
-310.6314722066818
 20
139.6914084390301
 30
0.0
 11
-310.6314722066818
 21
131.1914052073844
 31
0.0
  0
LINE
  5
135
330
1F
100
AcDbEntity
  8
0
  6
Continuous
 62
     7
370
    13
100
AcDbLine
 10
-312.8314596522468
 20
138.4913747967512
 30
0.0
 11
-312.8314596522468
 21
144.7413582510926
 31
0.0
  0
LINE
  5
136
330
1F
100
AcDbEntity
  8
0
  6
Continuous
 62
     7
370
    13
100
AcDbLine
 10
-246.1315073608566
 20
133.6913886915281
 30
0.0
 11
-246.1315073608566
 21
140.6913622423162
 31
0.0
  0
LINE
  5
137
330
1F
100
AcDbEntity
  8
0
  6
Continuous
 62
     7
370
    13
100
AcDbLine
 10
-234.1314678658528
 20
137.1913754669222
 30
0.0
 11
-234.1314678658528
 21
142.1913919231738
 31
0.0
  0
LINE
  5
138
330
1F
100
AcDbEntity
  8
0
  6
Continuous
 62
     7
370
    13
100
AcDbLine
 10
-234.1314678658528
 20
132.1913590106706
 30
0.0
 11
-234.1314678658528
 21
137.1913754669222
 31
0.0
  0
LINE
  5
139
330
1F
100
AcDbEntity
  8
0
  6
Continuous
 62
     7
370
    13
100
AcDbLine
 10
-235.1316196209955
 20
131.6914315969916
 30
0.0
 11
-235.1316196209955
 21
142.6913193368528
 31
0.0
  0
LINE
  5
13A
330
1F
100
AcDbEntity
  8
0
  6
Continuous
 62
     7
370
    13
100
AcDbLine
 10
-303.5324979836441
 20
130.6914283057413
 30
0.0
 11
-294.5896269609657
 21
130.6914283057413
 31
0.0
  0
LINE
  5
13B
330
1F
100
AcDbEntity
  8
0
  6
Continuous
 62
     7
370
    13
100
AcDbLine
 10
-234.1314678658528
 20
146.6913819898182
 30
0.0
 11
-234.1314678658528
 21
-23.34594708008808
 31
0.0
  0
LINE
  5
13C
330
1F
100
AcDbEntity
  8
0
  6
Continuous
 62
     7
370
    13
100
AcDbLine
 10
-234.1314678658528
 20
-36.08033847487241
 30
0.0
 11
-234.1314678658528
 21
-63.30856685328763
 31
0.0
  0
LINE
  5
13D
330
1F
100
AcDbEntity
  8
0
  6
Continuous
 62
     7
370
    13
100
AcDbLine
 10
-187.0985026568669
 20
-23.30853417920298
 30
0.0
 11
-187.0985026568669
 21
146.6913819898182
 31
0.0
  0
LINE
  5
13E
330
1F
100
AcDbEntity
  8
0
  6
Continuous
 62
     7
370
    13
100
AcDbLine
 10
-187.0985026568669
 20
-23.30853417920298
 30
0.0
 11
-222.061155461779
 21
-23.30853417920298
 31
0.0
  0
LINE
  5
13F
330
1F
100
AcDbEntity
  8
0
  6
Continuous
 62
     7
370
    13
100
AcDbLine
 10
-187.0985026568669
 20
146.6913819898182
 30
0.0
 11
-222.061155461779
 21
146.6913819898182
 31
0.0
  0
LINE
  5
140
330
1F
100
AcDbEntity
  8
0
  6
Continuous
 62
     7
370
    13
100
AcDbLine
 10
-334.1315742950464
 20
-67.48671194518829
 30
0.0
 11
-334.1315742950464
 21
-34.31700808084133
 31
0.0
  0
LINE
  5
141
330
1F
100
AcDbEntity
  8
0
  6
Continuous
 62
     7
370
    13
100
AcDbLine
 10
-334.1315742950464
 20
-67.48671194518829
 30
0.0
 11
-235.1316196209955
 21
-67.48671194518829
 31
0.0
  0
LINE
  5
142
330
1F
100
AcDbEntity
  8
0
  6
Continuous
 62
     7
370
    13
100
AcDbLine
 10
-235.1316196209955
 20
-67.48671194518829
 30
0.0
 11
-235.1316196209955
 21
-34.31700808084133
 31
0.0
  0
LINE
  5
143
330
1F
100
AcDbEntity
  8
0
  6
Continuous
 62
     7
370
    13
100
AcDbLine
 10
-235.1316196209955
 20
-67.48671194518829
 30
0.0
 11
-234.1314678658528
 21
-67.48671194518829
 31
0.0
  0
LINE
  5
144
330
1F
100
AcDbEntity
  8
0
  6
Continuous
 62
     7
370
    13
100
AcDbLine
 10
-234.1314678658528
 20
-67.48671194518829
 30
0.0
 11
-234.1314678658528
 21
-34.31700808084133
 31
0.0
  0
LINE
  5
145
330
1F
100
AcDbEntity
  8
0
  6
Continuous
 62
     7
370
    13
100
AcDbLine
 10
-205.9245160207647
 20
-23.30853417920298
 30
0.0
 11
-205.9245160207647
 21
61.69147339327174
 31
0.0
  0
LINE
  5
146
330
1F
100
AcDbEntity
  8
0
  6
Continuous
 62
     7
370
    13
100
AcDbLine
 10
-205.9245160207647
 20
-23.30853417920298
 30
0.0
 11
-223.8541538903082
 21
-23.30853417920298
 31
0.0
  0
LINE
  5
147
330
1F
100
AcDbEntity
  8
0
  6
Continuous
 62
     7
370
    13
100
AcDbLine
 10
-205.9245160207647
 20
61.69147339327174
 30
0.0
 11
-223.8541538903082
 21
61.69147339327174
 31
0.0
  0
LINE
  5
148
330
1F
100
AcDbEntity
  8
0
  6
Continuous
 62
     7
370
    13
100
AcDbLine
 10
-219.3717320509313
 20
20.1914357823116
 30
0.0
 11
-219.3717320509313
 21
103.1914862602498
 31
0.0
  0
LINE
  5
149
330
1F
100
AcDbEntity
  8
0
  6
Continuous
 62
     7
370
    13
100
AcDbLine
 10
-219.3717320509313
 20
20.1914357823116
 30
0.0
 11
-228.3364272657927
 21
20.1914357823116
 31
0.0
  0
LINE
  5
14A
330
1F
100
AcDbEntity
  8
0
  6
Continuous
 62
     7
370
    13
100
AcDbLine
 10
-219.3717320509313
 20
103.1914862602498
 30
0.0
 11
-228.3364272657927
 21
103.1914862602498
 31
0.0
  0
LINE
  5
14B
330
1F
100
AcDbEntity
  8
0
  6
Continuous
 62
     7
370
    13
100
AcDbLine
 10
-254.1314347149309
 20
-47.7641746230438
 30
0.0
 11
-234.1314678658528
 21
-47.7641746230438
 31
0.0
  0
LINE
  5
14C
330
1F
100
AcDbEntity
  8
0
  6
Continuous
 62
     7
370
    13
100
AcDbLine
 10
-234.1314678658528
 20
-47.7641746230438
 30
0.0
 11
-234.1314678658528
 21
-32.52405914027622
 31
0.0
  0
LINE
  5
14D
330
1F
100
AcDbEntity
  8
0
  6
Continuous
 62
     7
370
    13
100
AcDbLine
 10
-334.1315742950464
 20
-82.23603054365958
 30
0.0
 11
-234.1314678658528
 21
-82.23603054365958
 31
0.0
  0
LINE
  5
14E
330
1F
100
AcDbEntity
  8
0
  6
Continuous
 62
     7
370
    13
100
AcDbLine
 10
-334.1315742950464
 20
-82.23603054365958
 30
0.0
 11
-334.1315742950464
 21
-53.46449525975186
 31
0.0
  0
LINE
  5
14F
330
1F
100
AcDbEntity
  8
0
  6
Continuous
 62
     7
370
    13
100
AcDbLine
 10
-234.1314678658528
 20
-82.23603054365958
 30
0.0
 11
-234.1314678658528
 21
-53.46449525975186
 31
0.0
  0
LINE
  5
150
330
1F
100
AcDbEntity
  8
0
  6
Continuous
 62
     7
370
    13
100
AcDbLine
 10
-269.1521700526937
 20
79.11254819939495
 30
0.0
 11
-249.833652469737
 21
84.28891501583712
 31
0.0
  0
LINE
  5
151
330
1F
100
AcDbEntity
  8
0
  6
Continuous
 62
     7
370
    13
100
AcDbLine
 10
-269.1521700526937
 20
79.11254819939495
 30
0.0
 11
-265.9910768556874
 21
67.31533512539318
 31
0.0
  0
LINE
  5
152
330
1F
100
AcDbEntity
  8
0
  6
Continuous
 62
     7
370
    13
100
AcDbLine
 10
-249.833652469737
 20
84.28891501583712
 30
0.0
 11
-246.672658248659
 21
72.49170194183534
 31
0.0
  0
LINE
  5
153
330
1F
100
AcDbEntity
  8
0
  6
Continuous
 62
     7
370
    13
100
AcDbLine
 10
-275.8050350230478
 20
110.7108607386035
 30
0.0
 11
-267.1116328275675
 21
113.0402097224141
 31
0.0
  0
LINE
  5
154
330
1F
100
AcDbEntity
  8
0
  6
Continuous
 62
     7
370
    13
100
AcDbLine
 10
-275.8050350230478
 20
110.7108607386035
 30
0.0
 11
-273.9426544688031
 21
103.7605236158415
 31
0.0
  0
LINE
  5
155
330
1F
100
AcDbEntity
  8
0
  6
Continuous
 62
     7
370
    13
100
AcDbLine
 10
-267.1116328275675
 20
113.0402097224141
 30
0.0
 11
-265.249351249251
 21
106.0898725996522
 31
0.0
  0
LINE
  5
156
330
1F
100
AcDbEntity
  8
0
  6
Continuous
 62
     7
370
    13
100
AcDbLine
 10
-267.1116328275675
 20
113.0402097224141
 30
0.0
 11
-267.0636789903219
 21
113.0244478058376
 31
0.0
  0
LINE
  5
157
330
1F
100
AcDbEntity
  8
0
  6
Continuous
 62
     7
370
    13
100
AcDbLine
 10
-275.8050350230478
 20
110.7108607386035
 30
0.0
 11
-275.7749958288186
 21
110.6614222624339
 31
0.0
  0
LINE
  5
158
330
1F
100
AcDbEntity
  8
0
  6
Continuous
 62
     7
370
    13
100
AcDbLine
 10
-205.9245160207647
 20
61.69147339327174
 30
0.0
 11
-205.9245160207647
 21
146.6913819898182
 31
0.0
  0
LINE
  5
159
330
1F
100
AcDbEntity
  8
0
  6
Continuous
 62
     7
370
    13
100
AcDbLine
 10
-205.9245160207647
 20
61.69147339327174
 30
0.0
 11
-225.6470533429092
 21
61.69147339327174
 31
0.0
  0
LINE
  5
15A
330
1F
100
AcDbEntity
  8
0
  6
Continuous
 62
     7
370
    13
100
AcDbLine
 10
-205.9245160207647
 20
146.6913819898182
 30
0.0
 11
-225.6470533429092
 21
146.6913819898182
 31
0.0
  0
LINE
  5
15B
330
1F
100
AcDbEntity
  8
0
  6
Continuous
 62
     7
370
    13
100
AcDbLine
 10
-254.1314347149309
 20
-47.7641746230438
 30
0.0
 11
-254.1314347149309
 21
3.335043390936335
 31
0.0
  0
LINE
  5
15C
330
1F
100
AcDbEntity
  8
0
  6
Continuous
 62
     7
370
    13
100
AcDbLine
 10
-254.1314347149309
 20
38.2976961958484
 30
0.0
 11
-254.1314347149309
 21
38.32595382336876
 31
0.0
  0
LINE
  5
15D
330
1F
100
AcDbEntity
  8
0
  6
Continuous
 62
     7
370
    13
100
AcDbLine
 10
-88.16637123766122
 20
-162.5134140708433
 30
0.0
 11
42.71944579119736
 21
-162.5134140708433
 31
0.0
  0
LINE
  5
15E
330
1F
100
AcDbEntity
  8
0
  6
Continuous
 62
     7
370
    13
100
AcDbLine
 10
42.71944579119736
 20
-162.5134140708433
 30
0.0
 11
42.71944579119736
 21
-134.7225694001827
 31
0.0
  0
LINE
  5
15F
330
1F
100
AcDbEntity
  8
0
  6
Continuous
 62
     7
370
    13
100
AcDbLine
 10
42.71944579119736
 20
-134.7225694001827
 30
0.0
 11
-88.16637123766122
 21
-134.7225694001827
 31
0.0
  0
LINE
  5
160
330
1F
100
AcDbEntity
  8
0
  6
Continuous
 62
     7
370
    13
100
AcDbLine
 10
-88.16637123766122
 20
-134.7225694001827
 30
0.0
 11
-88.16637123766122
 21
-162.5134140708433
 31
0.0
  0
LINE
  5
161
330
1F
100
AcDbEntity
  8
0
  6
Continuous
 62
     7
370
    13
100
AcDbLine
 10
-72.34160494661774
 20
16.69135003098927
 30
0.0
 11
-72.34160494661774
 21
96.6913906351765
 31
0.0
  0
LINE
  5
162
330
1F
100
AcDbEntity
  8
0
  6
Continuous
 62
     7
370
    13
100
AcDbLine
 10
-63.78177076633438
 20
122.1914250740956
 30
0.0
 11
-70.54167820310977
 21
122.1914250740956
 31
0.0
  0
LINE
  5
163
330
1F
100
AcDbEntity
  8
0
  6
Continuous
 62
     7
370
    13
100
AcDbLine
 10
-32.84164815010445
 20
122.1914250740956
 30
0.0
 11
-30.54169501698925
 21
122.1914250740956
 31
0.0
  0
LINE
  5
164
330
1F
100
AcDbEntity
  8
0
  6
Continuous
 62
     7
370
    13
100
AcDbLine
 10
-59.21912893709668
 20
122.1914250740956
 30
0.0
 11
-60.90142278985877
 21
122.1914250740956
 31
0.0
  0
LINE
  5
165
330
1F
100
AcDbEntity
  8
0
  6
Continuous
 62
     7
370
    13
100
AcDbLine
 10
-74.84163791872561
 20
-23.30858366716711
 30
0.0
 11
-61.34161823082832
 21
-23.30858366716711
 31
0.0
  0
LINE
  5
166
330
1F
100
AcDbEntity
  8
0
  6
Continuous
 62
     7
370
    13
100
AcDbLine
 10
-61.34161823082832
 20
-23.30858366716711
 30
0.0
 11
-61.34161823082832
 21
-21.30857708466647
 31
0.0
  0
LINE
  5
167
330
1F
100
AcDbEntity
  8
0
  6
Continuous
 62
     7
370
    13
100
AcDbLine
 10
-61.34161823082832
 20
-21.30857708466647
 30
0.0
 11
-58.84168423464871
 21
-21.30857708466647
 31
0.0
  0
LINE
  5
168
330
1F
100
AcDbEntity
  8
0
  6
Continuous
 62
     7
370
    13
100
AcDbLine
 10
-58.84168423464871
 20
-21.30857708466647
 30
0.0
 11
-58.84168423464871
 21
-19.30857050216582
 31
0.0
  0
LINE
  5
169
330
1F
100
AcDbEntity
  8
0
  6
Continuous
 62
     7
370
    13
100
AcDbLine
 10
-58.84168423464871
 20
-19.30857050216582
 30
0.0
 11
-61.34161823082832
 21
-19.30857050216582
 31
0.0
  0
LINE
  5
16A
330
1F
100
AcDbEntity
  8
0
  6
Continuous
 62
     7
370
    13
100
AcDbLine
 10
-61.34161823082832
 20
-19.30857050216582
 30
0.0
 11
-61.34161823082832
 21
-14.69114549663209
 31
0.0
  0
LINE
  5
16B
330
1F
100
AcDbEntity
  8
0
  6
Continuous
 62
     7
370
    13
100
AcDbLine
 10
-57.40608788309328
 20
-8.308559042394336
 30
0.0
 11
-44.34166125550109
 21
-8.308559042394336
 31
0.0
  0
LINE
  5
16C
330
1F
100
AcDbEntity
  8
0
  6
Continuous
 62
     7
370
    13
100
AcDbLine
 10
-43.34160847628664
 20
-9.308562333644659
 30
0.0
 11
-43.34160847628664
 21
-14.80858043552143
 31
0.0
  0
LINE
  5
16D
330
1F
100
AcDbEntity
  8
0
  6
Continuous
 62
     7
370
    13
100
AcDbLine
 10
-43.34160847628664
 20
-14.80858043552143
 30
0.0
 11
-45.84164144839451
 21
-14.80858043552143
 31
0.0
  0
LINE
  5
16E
330
1F
100
AcDbEntity
  8
0
  6
Continuous
 62
     7
370
    13
100
AcDbLine
 10
-45.84164144839451
 20
-14.80858043552143
 30
0.0
 11
-45.84164144839451
 21
-16.80858701802208
 31
0.0
  0
LINE
  5
16F
330
1F
100
AcDbEntity
  8
0
  6
Continuous
 62
     7
370
    13
100
AcDbLine
 10
-45.84164144839451
 20
-16.80858701802208
 30
0.0
 11
-44.84168764510832
 21
-16.80858701802208
 31
0.0
  0
LINE
  5
170
330
1F
100
AcDbEntity
  8
0
  6
Continuous
 62
     7
370
    13
100
AcDbLine
 10
-44.84168764510832
 20
-16.80858701802208
 30
0.0
 11
-44.84168764510832
 21
-16.05859692157537
 31
0.0
  0
LINE
  5
171
330
1F
100
AcDbEntity
  8
0
  6
Continuous
 62
     7
370
    13
100
AcDbLine
 10
-44.84168764510832
 20
-16.05859692157537
 30
0.0
 11
-43.34160847628664
 21
-16.05859692157537
 31
0.0
  0
LINE
  5
172
330
1F
100
AcDbEntity
  8
0
  6
Continuous
 62
     7
370
    13
100
AcDbLine
 10
-41.84162828339322
 20
-17.55857711446879
 30
0.0
 11
-41.84162828339322
 21
-18.55858040571911
 31
0.0
  0
LINE
  5
173
330
1F
100
AcDbEntity
  8
0
  6
Continuous
 62
     7
370
    13
100
AcDbLine
 10
-43.34160847628664
 20
-20.05856059861253
 30
0.0
 11
-44.84168764510832
 21
-20.05856059861253
 31
0.0
  0
LINE
  5
174
330
1F
100
AcDbEntity
  8
0
  6
Continuous
 62
     7
370
    13
100
AcDbLine
 10
-44.84168764510832
 20
-20.05856059861253
 30
0.0
 11
-44.84168764510832
 21
-19.30857050216582
 31
0.0
  0
LINE
  5
175
330
1F
100
AcDbEntity
  8
0
  6
Continuous
 62
     7
370
    13
100
AcDbLine
 10
-44.84168764510832
 20
-19.30857050216582
 30
0.0
 11
-45.84164144839451
 21
-19.30857050216582
 31
0.0
  0
LINE
  5
176
330
1F
100
AcDbEntity
  8
0
  6
Continuous
 62
     7
370
    13
100
AcDbLine
 10
-45.84164144839451
 20
-19.30857050216582
 30
0.0
 11
-45.84164144839451
 21
-21.30857708466647
 31
0.0
  0
LINE
  5
177
330
1F
100
AcDbEntity
  8
0
  6
Continuous
 62
     7
370
    13
100
AcDbLine
 10
-45.84164144839451
 20
-21.30857708466647
 30
0.0
 11
-43.34160847628664
 21
-21.30857708466647
 31
0.0
  0
LINE
  5
178
330
1F
100
AcDbEntity
  8
0
  6
Continuous
 62
     7
370
    13
100
AcDbLine
 10
-43.34160847628664
 20
-21.30857708466647
 30
0.0
 11
-43.34160847628664
 21
-23.30858366716711
 31
0.0
  0
LINE
  5
179
330
1F
100
AcDbEntity
  8
0
  6
Continuous
 62
     7
370
    13
100
AcDbLine
 10
-43.34160847628664
 20
-23.30858366716711
 30
0.0
 11
-31.34166795721103
 21
-23.30858366716711
 31
0.0
  0
LINE
  5
17A
330
1F
100
AcDbEntity
  8
0
  6
Continuous
 62
     7
370
    13
100
AcDbLine
 10
-30.34161517799657
 20
-22.30858037591679
 30
0.0
 11
-30.34161517799657
 21
-19.30857050216582
 31
0.0
  0
LINE
  5
17B
330
1F
100
AcDbEntity
  8
0
  6
Continuous
 62
     7
370
    13
100
AcDbLine
 10
-30.34161517799657
 20
-19.30857050216582
 30
0.0
 11
-31.34166795721103
 21
-19.30857050216582
 31
0.0
  0
LINE
  5
17C
330
1F
100
AcDbEntity
  8
0
  6
Continuous
 62
     7
370
    13
100
AcDbLine
 10
-31.34166795721103
 20
-19.30857050216582
 30
0.0
 11
-31.34166795721103
 21
-20.55858698821976
 31
0.0
  0
LINE
  5
17D
330
1F
100
AcDbEntity
  8
0
  6
Continuous
 62
     7
370
    13
100
AcDbLine
 10
-31.34166795721103
 20
-20.55858698821976
 30
0.0
 11
-32.5417015994899
 21
-20.55858698821976
 31
0.0
  0
LINE
  5
17E
330
1F
100
AcDbEntity
  8
0
  6
Continuous
 62
     7
370
    13
100
AcDbLine
 10
-32.5417015994899
 20
-20.55858698821976
 30
0.0
 11
-32.5417015994899
 21
-17.50856952671165
 31
0.0
  0
LINE
  5
17F
330
1F
100
AcDbEntity
  8
0
  6
Continuous
 62
     7
370
    13
100
AcDbLine
 10
-32.5417015994899
 20
-17.50856952671165
 30
0.0
 11
-32.74168246255431
 21
-17.30856391966518
 31
0.0
  0
LINE
  5
180
330
1F
100
AcDbEntity
  8
0
  6
Continuous
 62
     7
370
    13
100
AcDbLine
 10
-32.74168246255431
 20
-17.30856391966518
 30
0.0
 11
-32.5417015994899
 21
-17.10858305660076
 31
0.0
  0
LINE
  5
181
330
1F
100
AcDbEntity
  8
0
  6
Continuous
 62
     7
370
    13
100
AcDbLine
 10
-32.5417015994899
 20
-17.10858305660076
 30
0.0
 11
-32.5417015994899
 21
-14.05859033907473
 31
0.0
  0
LINE
  5
182
330
1F
100
AcDbEntity
  8
0
  6
Continuous
 62
     7
370
    13
100
AcDbLine
 10
-32.5417015994899
 20
-14.05859033907473
 30
0.0
 11
-31.34166795721103
 21
-14.05859033907473
 31
0.0
  0
LINE
  5
183
330
1F
100
AcDbEntity
  8
0
  6
Continuous
 62
     7
370
    13
100
AcDbLine
 10
-31.34166795721103
 20
-14.05859033907473
 30
0.0
 11
-31.34166795721103
 21
-15.30860682512866
 31
0.0
  0
LINE
  5
184
330
1F
100
AcDbEntity
  8
0
  6
Continuous
 62
     7
370
    13
100
AcDbLine
 10
-31.34166795721103
 20
-15.30860682512866
 30
0.0
 11
-30.34161517799657
 21
-15.30860682512866
 31
0.0
  0
LINE
  5
185
330
1F
100
AcDbEntity
  8
0
  6
Continuous
 62
     7
370
    13
100
AcDbLine
 10
-30.34161517799657
 20
-15.30860682512866
 30
0.0
 11
-30.34161517799657
 21
-12.30857220739563
 31
0.0
  0
LINE
  5
186
330
1F
100
AcDbEntity
  8
0
  6
Continuous
 62
     7
370
    13
100
AcDbLine
 10
-30.34161517799657
 20
-12.30857220739563
 30
0.0
 11
-33.54165540277609
 21
-12.30857220739563
 31
0.0
  0
LINE
  5
187
330
1F
100
AcDbEntity
  8
0
  6
Continuous
 62
     7
370
    13
100
AcDbLine
 10
-34.54170818199054
 20
-13.30857549864595
 30
0.0
 11
-34.54170818199054
 21
-20.00855301085539
 31
0.0
  0
LINE
  5
188
330
1F
100
AcDbEntity
  8
0
  6
Continuous
 62
     7
370
    13
100
AcDbLine
 10
-35.54166198527673
 20
-21.00858104608778
 30
0.0
 11
-38.84166789760638
 21
-21.00858104608778
 31
0.0
  0
LINE
  5
189
330
1F
100
AcDbEntity
  8
0
  6
Continuous
 62
     7
370
    13
100
AcDbLine
 10
-39.84162170089257
 20
-20.00855301085539
 30
0.0
 11
-39.84162170089257
 21
-16.29517413411668
 31
0.0
  0
LINE
  5
18A
330
1F
100
AcDbEntity
  8
0
  6
Continuous
 62
     7
370
    13
100
AcDbLine
 10
-41.14162103072158
 20
-14.80858043552143
 30
0.0
 11
-41.14162103072158
 21
-7.108599632061669
 31
0.0
  0
LINE
  5
18B
330
1F
100
AcDbEntity
  8
0
  6
Continuous
 62
     7
370
    13
100
AcDbLine
 10
-42.14167380993604
 20
-6.108571596829279
 30
0.0
 11
-62.34167101004277
 21
-6.108571596829279
 31
0.0
  0
LINE
  5
18C
330
1F
100
AcDbEntity
  8
0
  6
Continuous
 62
     7
370
    13
100
AcDbLine
 10
-63.54170465232164
 20
-13.92435423636198
 30
0.0
 11
-63.54170465232164
 21
-19.00854971960507
 31
0.0
  0
LINE
  5
18D
330
1F
100
AcDbEntity
  8
0
  6
Continuous
 62
     7
370
    13
100
AcDbLine
 10
-65.54171123482229
 20
-21.00858104608778
 30
0.0
 11
-70.54167820310977
 21
-21.00858104608778
 31
0.0
  0
LINE
  5
18E
330
1F
100
AcDbEntity
  8
0
  6
Continuous
 62
     7
370
    13
100
AcDbLine
 10
-72.54168478561041
 20
-19.00854971960507
 30
0.0
 11
-72.54168478561041
 21
16.49139391190693
 31
0.0
  0
LINE
  5
18F
330
1F
100
AcDbEntity
  8
0
  6
Continuous
 62
     7
370
    13
100
AcDbLine
 10
-72.54168478561041
 20
16.49139391190693
 30
0.0
 11
-72.34160494661774
 21
16.69135003098927
 31
0.0
  0
LINE
  5
190
330
1F
100
AcDbEntity
  8
0
  6
Continuous
 62
     7
370
    13
100
AcDbLine
 10
-72.34160494661774
 20
96.6913906351765
 30
0.0
 11
-72.54168478561041
 21
96.89134675425885
 31
0.0
  0
LINE
  5
191
330
1F
100
AcDbEntity
  8
0
  6
Continuous
 62
     7
370
    13
100
AcDbLine
 10
-72.54168478561041
 20
96.89134675425885
 30
0.0
 11
-72.54168478561041
 21
120.191418491595
 31
0.0
  0
LINE
  5
192
330
1F
100
AcDbEntity
  8
0
  6
Continuous
 62
     7
370
    13
100
AcDbLine
 10
-57.85162802418927
 20
123.4914244039246
 30
0.0
 11
-32.84164815010445
 21
123.4914244039246
 31
0.0
  0
LINE
  5
193
330
1F
100
AcDbEntity
  8
0
  6
Continuous
 62
     7
370
    13
100
AcDbLine
 10
-32.84164815010445
 20
123.4914244039246
 30
0.0
 11
-32.84164815010445
 21
122.1914250740956
 31
0.0
  0
LINE
  5
194
330
1F
100
AcDbEntity
  8
0
  6
Continuous
 62
     7
370
    13
100
AcDbLine
 10
-30.54169501698925
 20
122.1914250740956
 30
0.0
 11
-30.54169501698925
 21
124.4914276951749
 31
0.0
  0
LINE
  5
195
330
1F
100
AcDbEntity
  8
0
  6
Continuous
 62
     7
370
    13
100
AcDbLine
 10
-30.54169501698925
 20
124.4914276951749
 30
0.0
 11
-17.84164826931374
 21
124.4914276951749
 31
0.0
  0
LINE
  5
196
330
1F
100
AcDbEntity
  8
0
  6
Continuous
 62
     7
370
    13
100
AcDbLine
 10
-14.14168063085526
 20
128.1913953336334
 30
0.0
 11
-14.14168063085526
 21
138.1913787581725
 31
0.0
  0
LINE
  5
197
330
1F
100
AcDbEntity
  8
0
  6
Continuous
 62
     7
370
    13
100
AcDbLine
 10
-12.84163181306212
 20
139.6780466887139
 30
0.0
 11
-12.84163181306212
 21
143.6914216040313
 31
0.0
  0
LINE
  5
198
330
1F
100
AcDbEntity
  8
0
  6
Continuous
 62
     7
370
    13
100
AcDbLine
 10
-11.84167800977593
 20
144.6914248952817
 30
0.0
 11
9.251873870729469
 21
144.6914248952817
 31
0.0
  0
LINE
  5
199
330
1F
100
AcDbEntity
  8
0
  6
Continuous
 62
     7
370
    13
100
AcDbLine
 10
9.251873870729469
 20
140.6914117302804
 30
0.0
 11
8.158387815230526
 21
140.6914117302804
 31
0.0
  0
LINE
  5
19A
330
1F
100
AcDbEntity
  8
0
  6
Continuous
 62
     7
370
    13
100
AcDbLine
 10
5.158328453515423
 20
137.6914018565294
 30
0.0
 11
5.158328453515423
 21
132.1914084986347
 31
0.0
  0
LINE
  5
19B
330
1F
100
AcDbEntity
  8
0
  6
Continuous
 62
     7
370
    13
100
AcDbLine
 10
5.158328453515423
 20
132.1914084986347
 30
0.0
 11
7.658361425623298
 21
129.691425014491
 31
0.0
  0
LINE
  5
19C
330
1F
100
AcDbEntity
  8
0
  6
Continuous
 62
     7
370
    13
100
AcDbLine
 10
7.658361425623298
 20
129.691425014491
 30
0.0
 11
13.70148518988572
 21
129.691425014491
 31
0.0
  0
LINE
  5
19D
330
1F
100
AcDbEntity
  8
0
  6
Continuous
 62
     7
370
    13
100
AcDbLine
 10
19.35835539408436
 20
125.6914118494897
 30
0.0
 11
19.35835539408436
 21
118.6914382987015
 31
0.0
  0
LINE
  5
19E
330
1F
100
AcDbEntity
  8
0
  6
Continuous
 62
     7
370
    13
100
AcDbLine
 10
19.35835539408436
 20
118.6914382987015
 30
0.0
 11
22.15838440477091
 21
118.6914382987015
 31
0.0
  0
LINE
  5
19F
330
1F
100
AcDbEntity
  8
0
  6
Continuous
 62
     7
370
    13
100
AcDbLine
 10
22.15838440477091
 20
120.4414316863986
 30
0.0
 11
21.85828939026396
 21
120.7414277249773
 31
0.0
  0
LINE
  5
1A0
330
1F
100
AcDbEntity
  8
0
  6
Continuous
 62
     7
370
    13
100
AcDbLine
 10
21.85828939026396
 20
120.7414277249773
 30
0.0
 11
21.85828939026396
 21
123.4914244039246
 31
0.0
  0
LINE
  5
1A1
330
1F
100
AcDbEntity
  8
0
  6
Continuous
 62
     7
370
    13
100
AcDbLine
 10
21.85828939026396
 20
123.4914244039246
 30
0.0
 11
21.65835801516369
 21
123.691405266989
 31
0.0
  0
LINE
  5
1A2
330
1F
100
AcDbEntity
  8
0
  6
Continuous
 62
     7
370
    13
100
AcDbLine
 10
21.65835801516369
 20
123.691405266989
 30
0.0
 11
21.85828939026396
 21
123.8914356180176
 31
0.0
  0
LINE
  5
1A3
330
1F
100
AcDbEntity
  8
0
  6
Continuous
 62
     7
370
    13
100
AcDbLine
 10
21.85828939026396
 20
123.8914356180176
 30
0.0
 11
21.85828939026396
 21
126.6414322969649
 31
0.0
  0
LINE
  5
1A4
330
1F
100
AcDbEntity
  8
0
  6
Continuous
 62
     7
370
    13
100
AcDbLine
 10
21.85828939026396
 20
126.6414322969649
 30
0.0
 11
22.15838440477091
 21
126.9414283355436
 31
0.0
  0
LINE
  5
1A5
330
1F
100
AcDbEntity
  8
0
  6
Continuous
 62
     7
370
    13
100
AcDbLine
 10
21.15833162555646
 20
129.1913986248837
 30
0.0
 11
21.15833162555646
 21
128.6914217232406
 31
0.0
  0
LINE
  5
1A6
330
1F
100
AcDbEntity
  8
0
  6
Continuous
 62
     7
370
    13
100
AcDbLine
 10
19.15837453101994
 20
128.6914217232406
 30
0.0
 11
19.15837453101994
 21
130.4913979547127
 31
0.0
  0
LINE
  5
1A7
330
1F
100
AcDbEntity
  8
0
  6
Continuous
 62
     7
370
    13
100
AcDbLine
 10
19.15837453101994
 20
130.4913979547127
 30
0.0
 11
17.45836398709798
 21
130.4913979547127
 31
0.0
  0
LINE
  5
1A8
330
1F
100
AcDbEntity
  8
0
  6
Continuous
 62
     7
370
    13
100
AcDbLine
 10
17.45836398709798
 20
130.4913979547127
 30
0.0
 11
17.45836398709798
 21
131.5914164214773
 31
0.0
  0
LINE
  5
1A9
330
1F
100
AcDbEntity
  8
0
  6
Continuous
 62
     7
370
    13
100
AcDbLine
 10
17.45836398709798
 20
131.5914164214773
 30
0.0
 11
8.061688333313214
 21
132.5037270402827
 31
0.0
  0
LINE
  5
1AA
330
1F
100
AcDbEntity
  8
0
  6
Continuous
 62
     7
370
    13
100
AcDbLine
 10
7.158335036016069
 20
133.4990784629044
 30
0.0
 11
7.158335036016069
 21
137.6914018565294
 31
0.0
  0
LINE
  5
1AB
330
1F
100
AcDbEntity
  8
0
  6
Continuous
 62
     7
370
    13
100
AcDbLine
 10
8.158387815230526
 20
138.6914051477797
 30
0.0
 11
14.65833497641142
 21
138.6914051477797
 31
0.0
  0
LINE
  5
1AC
330
1F
100
AcDbEntity
  8
0
  6
Continuous
 62
     7
370
    13
100
AcDbLine
 10
15.65828877969761
 20
139.6914084390301
 30
0.0
 11
15.65828877969761
 21
142.6914678007452
 31
0.0
  0
LINE
  5
1AD
330
1F
100
AcDbEntity
  8
0
  6
Continuous
 62
     7
370
    13
100
AcDbLine
 10
17.65829536219826
 20
144.6914248952817
 30
0.0
 11
20.85833558697777
 21
144.6914248952817
 31
0.0
  0
LINE
  5
1AE
330
1F
100
AcDbEntity
  8
0
  6
Continuous
 62
     7
370
    13
100
AcDbLine
 10
21.85828939026396
 20
143.6914216040313
 30
0.0
 11
21.85828939026396
 21
138.1913787581725
 31
0.0
  0
LINE
  5
1AF
330
1F
100
AcDbEntity
  8
0
  6
Continuous
 62
     7
370
    13
100
AcDbLine
 10
24.15839098727156
 20
136.6913985652791
 30
0.0
 11
24.15839098727156
 21
146.6914314777823
 31
0.0
  0
LINE
  5
1B0
330
1F
100
AcDbEntity
  8
0
  6
Continuous
 62
     7
370
    13
100
AcDbLine
 10
24.15839098727156
 20
146.6914314777823
 30
0.0
 11
-16.34161858845619
 21
146.6914314777823
 31
0.0
  0
LINE
  5
1B1
330
1F
100
AcDbEntity
  8
0
  6
Continuous
 62
     7
370
    13
100
AcDbLine
 10
-16.34161858845619
 20
146.6914314777823
 30
0.0
 11
-16.34161858845619
 21
144.6914248952817
 31
0.0
  0
LINE
  5
1B2
330
1F
100
AcDbEntity
  8
0
  6
Continuous
 62
     7
370
    13
100
AcDbLine
 10
-16.34161858845619
 20
144.6914248952817
 30
0.0
 11
-18.84170104852819
 21
144.6914248952817
 31
0.0
  0
LINE
  5
1B3
330
1F
100
AcDbEntity
  8
0
  6
Continuous
 62
     7
370
    13
100
AcDbLine
 10
-18.84170104852819
 20
144.6914248952817
 30
0.0
 11
-18.84170104852819
 21
142.6914678007452
 31
0.0
  0
LINE
  5
1B4
330
1F
100
AcDbEntity
  8
0
  6
Continuous
 62
     7
370
    13
100
AcDbLine
 10
-18.84170104852819
 20
142.6914678007452
 30
0.0
 11
-17.84164826931374
 21
142.6914678007452
 31
0.0
  0
LINE
  5
1B5
330
1F
100
AcDbEntity
  8
0
  6
Continuous
 62
     7
370
    13
100
AcDbLine
 10
-17.84164826931374
 20
142.6914678007452
 30
0.0
 11
-17.84164826931374
 21
143.4414578971919
 31
0.0
  0
LINE
  5
1B6
330
1F
100
AcDbEntity
  8
0
  6
Continuous
 62
     7
370
    13
100
AcDbLine
 10
-17.84164826931374
 20
143.4414578971919
 30
0.0
 11
-16.34161858845619
 21
143.4414578971919
 31
0.0
  0
LINE
  5
1B7
330
1F
100
AcDbEntity
  8
0
  6
Continuous
 62
     7
370
    13
100
AcDbLine
 10
-14.84163839556277
 20
141.9413787283702
 30
0.0
 11
-14.84163839556277
 21
140.9413754371199
 31
0.0
  0
LINE
  5
1B8
330
1F
100
AcDbEntity
  8
0
  6
Continuous
 62
     7
370
    13
100
AcDbLine
 10
-16.34161858845619
 20
139.4413952442264
 30
0.0
 11
-17.84164826931374
 21
139.4413952442264
 31
0.0
  0
LINE
  5
1B9
330
1F
100
AcDbEntity
  8
0
  6
Continuous
 62
     7
370
    13
100
AcDbLine
 10
-17.84164826931374
 20
139.4413952442264
 30
0.0
 11
-17.84164826931374
 21
140.1913853406732
 31
0.0
  0
LINE
  5
1BA
330
1F
100
AcDbEntity
  8
0
  6
Continuous
 62
     7
370
    13
100
AcDbLine
 10
-17.84164826931374
 20
140.1913853406732
 30
0.0
 11
-18.84170104852819
 21
140.1913853406732
 31
0.0
  0
LINE
  5
1BB
330
1F
100
AcDbEntity
  8
0
  6
Continuous
 62
     7
370
    13
100
AcDbLine
 10
-18.84170104852819
 20
140.1913853406732
 30
0.0
 11
-18.84170104852819
 21
138.1913787581725
 31
0.0
  0
LINE
  5
1BC
330
1F
100
AcDbEntity
  8
0
  6
Continuous
 62
     7
370
    13
100
AcDbLine
 10
-18.84170104852819
 20
138.1913787581725
 30
0.0
 11
-16.34161858845619
 21
138.1913787581725
 31
0.0
  0
LINE
  5
1BD
330
1F
100
AcDbEntity
  8
0
  6
Continuous
 62
     7
370
    13
100
AcDbLine
 10
-16.34161858845619
 20
138.1913787581725
 30
0.0
 11
-16.34161858845619
 21
128.1913953336334
 31
0.0
  0
LINE
  5
1BE
330
1F
100
AcDbEntity
  8
0
  6
Continuous
 62
     7
370
    13
100
AcDbLine
 10
-17.84164826931374
 20
126.69141514074
 30
0.0
 11
-31.84169434681826
 21
126.69141514074
 31
0.0
  0
LINE
  5
1BF
330
1F
100
AcDbEntity
  8
0
  6
Continuous
 62
     7
370
    13
100
AcDbLine
 10
-31.84169434681826
 20
126.69141514074
 30
0.0
 11
-31.84169434681826
 21
128.6914217232406
 31
0.0
  0
LINE
  5
1C0
330
1F
100
AcDbEntity
  8
0
  6
Continuous
 62
     7
370
    13
100
AcDbLine
 10
-31.84169434681826
 20
128.6914217232406
 30
0.0
 11
-34.34162834299786
 21
128.6914217232406
 31
0.0
  0
LINE
  5
1C1
330
1F
100
AcDbEntity
  8
0
  6
Continuous
 62
     7
370
    13
100
AcDbLine
 10
-34.34162834299786
 20
127.6914184319903
 30
0.0
 11
-32.84164815010445
 21
127.6914184319903
 31
0.0
  0
LINE
  5
1C2
330
1F
100
AcDbEntity
  8
0
  6
Continuous
 62
     7
370
    13
100
AcDbLine
 10
-32.84164815010445
 20
127.6914184319903
 30
0.0
 11
-32.84164815010445
 21
125.6914118494897
 31
0.0
  0
LINE
  5
1C3
330
1F
100
AcDbEntity
  8
0
  6
Continuous
 62
     7
370
    13
100
AcDbLine
 10
-32.84164815010445
 20
125.6914118494897
 30
0.0
 11
-57.75908553125919
 21
125.6914118494897
 31
0.0
  0
LINE
  5
1C4
330
1F
100
AcDbEntity
  8
0
  6
Continuous
 62
     7
370
    13
100
AcDbLine
 10
-67.27720464902814
 20
124.4914276951749
 30
0.0
 11
-73.34165772583219
 21
124.4914276951749
 31
0.0
  0
LINE
  5
1C5
330
1F
100
AcDbEntity
  8
0
  6
Continuous
 62
     7
370
    13
100
AcDbLine
 10
-73.34165772583219
 20
124.4914276951749
 30
0.0
 11
-73.34165772583219
 21
127.6914184319903
 31
0.0
  0
LINE
  5
1C6
330
1F
100
AcDbEntity
  8
0
  6
Continuous
 62
     7
370
    13
100
AcDbLine
 10
-73.34165772583219
 20
127.6914184319903
 30
0.0
 11
-71.84167753293877
 21
127.6914184319903
 31
0.0
  0
LINE
  5
1C7
330
1F
100
AcDbEntity
  8
0
  6
Continuous
 62
     7
370
    13
100
AcDbLine
 10
-71.84167753293877
 20
128.6914217232406
 30
0.0
 11
-74.84163791872561
 21
128.6914217232406
 31
0.0
  0
LINE
  5
1C8
330
1F
100
AcDbEntity
  8
0
  6
Continuous
 62
     7
370
    13
100
AcDbLine
 10
-74.84163791872561
 20
128.6914217232406
 30
0.0
 11
-74.84163791872561
 21
-23.30858366716711
 31
0.0
  0
LINE
  5
1C9
330
1F
100
AcDbEntity
  8
0
  6
Continuous
 62
     7
370
    13
100
AcDbLine
 10
17.65829536219826
 20
131.2914203828987
 30
0.0
 11
17.65829536219826
 21
132.6914348882419
 31
0.0
  0
LINE
  5
1CA
330
1F
100
AcDbEntity
  8
0
  6
Continuous
 62
     7
370
    13
100
AcDbLine
 10
16.65834155891207
 20
133.6913886915281
 30
0.0
 11
11.15834820101736
 21
133.6913886915281
 31
0.0
  0
LINE
  5
1CB
330
1F
100
AcDbEntity
  8
0
  6
Continuous
 62
     7
370
    13
100
AcDbLine
 10
10.65832181141013
 20
134.1914150811353
 30
0.0
 11
10.65832181141013
 21
134.2914302566496
 31
0.0
  0
LINE
  5
1CC
330
1F
100
AcDbEntity
  8
0
  6
Continuous
 62
     7
370
    13
100
AcDbLine
 10
8.858395067902165
 20
134.2914302566496
 30
0.0
 11
8.858395067902165
 21
133.2914269653993
 31
0.0
  0
LINE
  5
1CD
330
1F
100
AcDbEntity
  8
0
  6
Continuous
 62
     7
370
    13
100
AcDbLine
 10
7.658361425623298
 20
133.2914269653993
 30
0.0
 11
7.658361425623298
 21
135.6913952740288
 31
0.0
  0
LINE
  5
1CE
330
1F
100
AcDbEntity
  8
0
  6
Continuous
 62
     7
370
    13
100
AcDbLine
 10
8.658315228909487
 20
136.6913985652791
 30
0.0
 11
24.15839098727156
 21
136.6913985652791
 31
0.0
  0
LINE
  5
1CF
330
1F
100
AcDbEntity
  8
0
  6
Continuous
 62
     7
370
    13
100
AcDbLine
 10
24.15839098727156
 20
136.6913985652791
 30
0.0
 11
24.15839098727156
 21
-23.30858366716711
 31
0.0
  0
LINE
  5
1D0
330
1F
100
AcDbEntity
  8
0
  6
Continuous
 62
     7
370
    13
100
AcDbLine
 10
24.15839098727156
 20
-23.30858366716711
 30
0.0
 11
18.65834814141272
 21
-23.30858366716711
 31
0.0
  0
LINE
  5
1D1
330
1F
100
AcDbEntity
  8
0
  6
Continuous
 62
     7
370
    13
100
AcDbLine
 10
17.65829536219826
 20
-22.30858037591679
 30
0.0
 11
17.65829536219826
 21
-17.90858074080461
 31
0.0
  0
LINE
  5
1D2
330
1F
100
AcDbEntity
  8
0
  6
Continuous
 62
     7
370
    13
100
AcDbLine
 10
18.85832900447713
 20
-17.90858074080461
 30
0.0
 11
18.85832900447713
 21
-19.80859689177305
 31
0.0
  0
LINE
  5
1D3
330
1F
100
AcDbEntity
  8
0
  6
Continuous
 62
     7
370
    13
100
AcDbLine
 10
19.35835539408436
 20
-20.30857379341614
 30
0.0
 11
21.65835801516369
 21
-20.30857379341614
 31
0.0
  0
LINE
  5
1D4
330
1F
100
AcDbEntity
  8
0
  6
Continuous
 62
     7
370
    13
100
AcDbLine
 10
22.15838440477091
 20
-19.80859689177305
 30
0.0
 11
22.15838440477091
 21
-3.308592074106855
 31
0.0
  0
LINE
  5
1D5
330
1F
100
AcDbEntity
  8
0
  6
Continuous
 62
     7
370
    13
100
AcDbLine
 10
21.85828939026396
 20
-3.008596035528171
 30
0.0
 11
21.85828939026396
 21
116.3914109336401
 31
0.0
  0
LINE
  5
1D6
330
1F
100
AcDbEntity
  8
0
  6
Continuous
 62
     7
370
    13
100
AcDbLine
 10
21.85828939026396
 20
116.3914109336401
 30
0.0
 11
22.15838440477091
 21
116.6914317162009
 31
0.0
  0
LINE
  5
1D7
330
1F
100
AcDbEntity
  8
0
  6
Continuous
 62
     7
370
    13
100
AcDbLine
 10
22.15838440477091
 20
116.6914317162009
 30
0.0
 11
22.15838440477091
 21
133.191411789885
 31
0.0
  0
LINE
  5
1D8
330
1F
100
AcDbEntity
  8
0
  6
Continuous
 62
     7
370
    13
100
AcDbLine
 10
21.65835801516369
 20
133.6913886915281
 30
0.0
 11
19.35835539408436
 21
133.6913886915281
 31
0.0
  0
LINE
  5
1D9
330
1F
100
AcDbEntity
  8
0
  6
Continuous
 62
     7
370
    13
100
AcDbLine
 10
18.85832900447713
 20
133.191411789885
 30
0.0
 11
18.85832900447713
 21
131.2914203828987
 31
0.0
  0
LINE
  5
1DA
330
1F
100
AcDbEntity
  8
0
  6
Continuous
 62
     7
370
    13
100
AcDbLine
 10
22.63965485597146
 20
119.7315763288643
 30
0.0
 11
22.63965485597146
 21
120.4315340935718
 31
0.0
  0
LINE
  5
1DB
330
1F
100
AcDbEntity
  8
0
  6
Continuous
 62
     7
370
    13
100
AcDbLine
 10
55.7122138467239
 20
58.73182095427183
 30
0.0
 11
33.30025311373174
 21
58.73182095427183
 31
0.0
  0
LINE
  5
1DC
330
1F
100
AcDbEntity
  8
0
  6
Continuous
 62
     7
370
    13
100
AcDbLine
 10
41.36857283423888
 20
17.23180808729376
 30
0.0
 11
41.36857283423888
 21
100.231858565232
 31
0.0
  0
LINE
  5
1DD
330
1F
100
AcDbEntity
  8
0
  6
Continuous
 62
     7
370
    13
100
AcDbLine
 10
41.36857283423888
 20
17.23180808729376
 30
0.0
 11
31.50735366113076
 21
17.23180808729376
 31
0.0
  0
LINE
  5
1DE
330
1F
100
AcDbEntity
  8
0
  6
Continuous
 62
     7
370
    13
100
AcDbLine
 10
41.36857283423888
 20
100.231858565232
 30
0.0
 11
31.50735366113076
 21
100.231858565232
 31
0.0
  0
LINE
  5
1DF
330
1F
100
AcDbEntity
  8
0
  6
Continuous
 62
     7
370
    13
100
AcDbLine
 10
-9.618332245139754
 20
73.30619959953037
 30
0.0
 11
9.700185337816947
 21
78.48259115995461
 31
0.0
  0
LINE
  5
1E0
330
1F
100
AcDbEntity
  8
0
  6
Continuous
 62
     7
370
    13
100
AcDbLine
 10
-9.618332245139754
 20
73.30619959953037
 30
0.0
 11
-6.944695494850748
 21
63.32799087921012
 31
0.0
  0
LINE
  5
1E1
330
1F
100
AcDbEntity
  8
0
  6
Continuous
 62
     7
370
    13
100
AcDbLine
 10
9.700185337816947
 20
78.48259115995461
 30
0.0
 11
12.37382208810595
 21
68.50435769565229
 31
0.0
  0
LINE
  5
1E2
330
1F
100
AcDbEntity
  8
0
  6
Continuous
 62
     7
370
    13
100
AcDbLine
 10
-7.178823053167434
 20
108.2920375156391
 30
0.0
 11
1.514579142312868
 21
110.6214359874139
 31
0.0
  0
LINE
  5
1E3
330
1F
100
AcDbEntity
  8
0
  6
Continuous
 62
     7
370
    13
100
AcDbLine
 10
-7.178823053167434
 20
108.2920375156391
 30
0.0
 11
-5.479703292599879
 21
101.9509714633095
 31
0.0
  0
LINE
  5
1E4
330
1F
100
AcDbEntity
  8
0
  6
Continuous
 62
     7
370
    13
100
AcDbLine
 10
1.514579142312868
 20
110.6214359874139
 30
0.0
 11
3.213599926952156
 21
104.2803204471202
 31
0.0
  0
LINE
  5
1E5
330
1F
100
AcDbEntity
  8
0
  6
Continuous
 62
     7
370
    13
100
AcDbLine
 10
1.514579142312868
 20
110.6214359874139
 30
0.0
 11
1.390908719942672
 21
110.6110187709637
 31
0.0
  0
LINE
  5
1E6
330
1F
100
AcDbEntity
  8
0
  6
Continuous
 62
     7
370
    13
100
AcDbLine
 10
-7.178823053167434
 20
108.2920375156391
 30
0.0
 11
-7.12611837136501
 21
108.2087987599662
 31
0.0
  0
LINE
  5
1E7
330
1F
100
AcDbEntity
  8
0
  6
Continuous
 62
     7
370
    13
100
AcDbLine
 10
55.7122138467239
 20
-23.26815200046985
 30
0.0
 11
55.7122138467239
 21
58.73182095427183
 31
0.0
  0
LINE
  5
1E8
330
1F
100
AcDbEntity
  8
0
  6
Continuous
 62
     7
370
    13
100
AcDbLine
 10
22.15838440477091
 20
-3.308592074106855
 30
0.0
 11
21.85828939026396
 21
-3.008596035528171
 31
0.0
  0
LINE
  5
1E9
330
1F
100
AcDbEntity
  8
0
  6
Continuous
 62
     7
370
    13
100
AcDbLine
 10
55.7122138467239
 20
-23.26815200046985
 30
0.0
 11
42.55168159278401
 21
-23.26815200046985
 31
0.0
  0
LINE
  5
1EA
330
1F
100
AcDbEntity
  8
0
  6
Continuous
 62
     7
370
    13
100
AcDbLine
 10
4.639694589393912
 20
-47.7641746230438
 30
0.0
 11
24.65831840095052
 21
-47.7641746230438
 31
0.0
  0
LINE
  5
1EB
330
1F
100
AcDbEntity
  8
0
  6
Continuous
 62
     7
370
    13
100
AcDbLine
 10
4.639694589393912
 20
-47.7641746230438
 30
0.0
 11
4.639694589393912
 21
-32.58544895978412
 31
0.0
  0
LINE
  5
1EC
330
1F
100
AcDbEntity
  8
0
  6
Continuous
 62
     7
370
    13
100
AcDbLine
 10
24.65831840095052
 20
-47.7641746230438
 30
0.0
 11
24.65831840095052
 21
-32.58544895978412
 31
0.0
  0
LINE
  5
1ED
330
1F
100
AcDbEntity
  8
0
  6
Continuous
 62
     7
370
    13
100
AcDbLine
 10
-75.34166430833284
 20
-67.10407100650627
 30
0.0
 11
24.65831840095052
 21
-67.10407100650627
 31
0.0
  0
LINE
  5
1EE
330
1F
100
AcDbEntity
  8
0
  6
Continuous
 62
     7
370
    13
100
AcDbLine
 10
-75.34166430833284
 20
-67.10407100650627
 30
0.0
 11
-75.34166430833284
 21
-33.40732032413507
 31
0.0
  0
LINE
  5
1EF
330
1F
100
AcDbEntity
  8
0
  6
Continuous
 62
     7
370
    13
100
AcDbLine
 10
24.65831840095052
 20
-67.10407100650627
 30
0.0
 11
24.65831840095052
 21
-33.40732032413507
 31
0.0
  0
LINE
  5
1F0
330
1F
100
AcDbEntity
  8
0
  6
Continuous
 62
     7
370
    13
100
AcDbLine
 10
71.97069265543541
 20
-23.26815200046985
 30
0.0
 11
71.97069265543541
 21
146.6914314777823
 31
0.0
  0
LINE
  5
1F1
330
1F
100
AcDbEntity
  8
0
  6
Continuous
 62
     7
370
    13
100
AcDbLine
 10
71.97069265543541
 20
-23.26815200046985
 30
0.0
 11
32.52091665455373
 21
-23.26815200046985
 31
0.0
  0
LINE
  5
1F2
330
1F
100
AcDbEntity
  8
0
  6
Continuous
 62
     7
370
    13
100
AcDbLine
 10
71.97069265543541
 20
146.6914314777823
 30
0.0
 11
32.52091665455373
 21
146.6914314777823
 31
0.0
  0
LINE
  5
1F3
330
1F
100
AcDbEntity
  8
0
  6
Continuous
 62
     7
370
    13
100
AcDbLine
 10
55.7122138467239
 20
58.73182095427183
 30
0.0
 11
55.7122138467239
 21
146.6914314777823
 31
0.0
  0
LINE
  5
1F4
330
1F
100
AcDbEntity
  8
0
  6
Continuous
 62
     7
370
    13
100
AcDbLine
 10
55.7122138467239
 20
58.73182095427183
 30
0.0
 11
29.47745634829334
 21
58.73182095427183
 31
0.0
  0
LINE
  5
1F5
330
1F
100
AcDbEntity
  8
0
  6
Continuous
 62
     7
370
    13
100
AcDbLine
 10
55.7122138467239
 20
146.6914314777823
 30
0.0
 11
29.47745634829334
 21
146.6914314777823
 31
0.0
  0
LINE
  5
1F6
330
1F
100
AcDbEntity
  8
0
  6
Continuous
 62
     7
370
    13
100
AcDbLine
 10
55.7122138467239
 20
146.6914314777823
 30
0.0
 11
55.73616602136462
 21
146.6560970713908
 31
0.0
  0
LINE
  5
1F7
330
1F
100
AcDbEntity
  8
0
  6
Continuous
 62
     7
370
    13
100
AcDbLine
 10
71.97069265543541
 20
146.6914314777823
 30
0.0
 11
69.61372938763816
 21
146.6914314777823
 31
0.0
  0
LINE
  5
1F8
330
1F
100
AcDbEntity
  8
0
  6
Continuous
 62
     7
370
    13
100
AcDbLine
 10
71.97069265543541
 20
-23.26815200046985
 30
0.0
 11
71.66312495834427
 21
-23.26815200046985
 31
0.0
  0
LINE
  5
1F9
330
1F
100
AcDbEntity
  8
0
  6
Continuous
 62
     7
370
    13
100
AcDbLine
 10
24.65831840095052
 20
-47.7641746230438
 30
0.0
 11
24.89313879076508
 21
-47.7641746230438
 31
0.0
  0
LINE
  5
1FA
330
1F
100
AcDbEntity
  8
0
  6
Continuous
 62
     7
370
    13
100
AcDbLine
 10
4.639694589393912
 20
-47.7641746230438
 30
0.0
 11
4.639694589393912
 21
-47.31450223694264
 31
0.0
  0
LINE
  5
1FB
330
1F
100
AcDbEntity
  8
0
  6
Continuous
 62
     7
370
    13
100
AcDbLine
 10
24.65831840095052
 20
-67.10407100650627
 30
0.0
 11
24.20431581798766
 21
-67.10407100650627
 31
0.0
  0
LINE
  5
1FC
330
1F
100
AcDbEntity
  8
0
  6
Continuous
 62
     7
370
    13
100
AcDbLine
 10
-75.34166430833284
 20
-67.10407100650627
 30
0.0
 11
-75.91037999215769
 21
-67.10407100650627
 31
0.0
  0
LINE
  5
1FD
330
1F
100
AcDbEntity
  8
0
  6
Continuous
 62
     7
370
    13
100
AcDbLine
 10
24.15839098727156
 20
146.6914314777823
 30
0.0
 11
24.67182861515903
 21
146.6914314777823
 31
0.0
  0
LINE
  5
1FE
330
1F
100
AcDbEntity
  8
0
  6
Continuous
 62
     7
370
    13
100
AcDbLine
 10
24.65831840095052
 20
-24.37863717164873
 30
0.0
 11
24.65831840095052
 21
146.6914314777823
 31
0.0
  0
LINE
  5
1FF
330
1F
100
AcDbEntity
  8
0
  6
Continuous
 62
     7
370
    13
100
AcDbLine
 10
-75.34166430833284
 20
-24.37863717164873
 30
0.0
 11
-75.34166430833284
 21
146.569196206372
 31
0.0
  0
LINE
  5
200
330
1F
100
AcDbEntity
  8
0
  6
Continuous
 62
     7
370
    13
100
AcDbLine
 10
183.6710157489288
 20
-67.25085230812692
 30
0.0
 11
183.6710157489288
 21
-34.08114844377997
 31
0.0
  0
LINE
  5
201
330
1F
100
AcDbEntity
  8
0
  6
Continuous
 62
     7
370
    13
100
AcDbLine
 10
183.6710157489288
 20
-67.25085230812692
 30
0.0
 11
283.6709984582121
 21
-67.25085230812692
 31
0.0
  0
LINE
  5
202
330
1F
100
AcDbEntity
  8
0
  6
Continuous
 62
     7
370
    13
100
AcDbLine
 10
283.6709984582121
 20
-67.25085230812692
 30
0.0
 11
283.6709984582121
 21
-34.08114844377997
 31
0.0
  0
LINE
  5
203
330
1F
100
AcDbEntity
  8
0
  6
Continuous
 62
     7
370
    13
100
AcDbLine
 10
283.6709984582121
 20
166.9271095000295
 30
0.0
 11
183.6710157489288
 21
166.9271095000295
 31
0.0
  0
LINE
  5
204
330
1F
100
AcDbEntity
  8
0
  6
Continuous
 62
     7
370
    13
100
AcDbLine
 10
183.6710157489288
 20
166.9272579639219
 30
0.0
 11
183.6710157489288
 21
-23.07277351806988
 31
0.0
  0
LINE
  5
205
330
1F
100
AcDbEntity
  8
0
  6
Continuous
 62
     7
370
    13
100
AcDbLine
 10
223.6709989350493
 20
125.6772088037833
 30
0.0
 11
223.6709989350493
 21
123.427189026479
 31
0.0
  0
LINE
  5
206
330
1F
100
AcDbEntity
  8
0
  6
Continuous
 62
     7
370
    13
100
AcDbLine
 10
222.1710187421559
 20
125.6772088037833
 30
0.0
 11
222.1710187421559
 21
124.6272226687579
 31
0.0
  0
LINE
  5
207
330
1F
100
AcDbEntity
  8
0
  6
Continuous
 62
     7
370
    13
100
AcDbLine
 10
186.1709992330725
 20
163.4271722125995
 30
0.0
 11
186.1709992330725
 21
125.127199570401
 31
0.0
  0
LINE
  5
208
330
1F
100
AcDbEntity
  8
0
  6
Continuous
 62
     7
370
    13
100
AcDbLine
 10
186.1709992330725
 20
121.9272088335856
 30
0.0
 11
186.1709992330725
 21
-19.07278509705066
 31
0.0
  0
LINE
  5
209
330
1F
100
AcDbEntity
  8
0
  6
Continuous
 62
     7
370
    13
100
AcDbLine
 10
196.1710321455757
 20
-23.07277351806988
 30
0.0
 11
183.6710157489288
 21
-23.07277351806988
 31
0.0
  0
LINE
  5
20A
330
1F
100
AcDbEntity
  8
0
  6
Continuous
 62
     7
370
    13
100
AcDbLine
 10
191.6709925909672
 20
-20.07278838830098
 30
0.0
 11
187.1710025243228
 21
-20.07278838830098
 31
0.0
  0
LINE
  5
20B
330
1F
100
AcDbEntity
  8
0
  6
Continuous
 62
     7
370
    13
100
AcDbLine
 10
196.1710321455757
 20
-23.07277351806988
 30
0.0
 11
196.1710321455757
 21
-21.07276693556923
 31
0.0
  0
LINE
  5
20C
330
1F
100
AcDbEntity
  8
0
  6
Continuous
 62
     7
370
    13
100
AcDbLine
 10
197.3710162998905
 20
-21.07276693556923
 30
0.0
 11
196.1710321455757
 21
-21.07276693556923
 31
0.0
  0
LINE
  5
20D
330
1F
100
AcDbEntity
  8
0
  6
Continuous
 62
     7
370
    13
100
AcDbLine
 10
197.6710123384692
 20
-20.77279564097262
 30
0.0
 11
197.6710123384692
 21
-18.57278345142549
 31
0.0
  0
LINE
  5
20E
330
1F
100
AcDbEntity
  8
0
  6
Continuous
 62
     7
370
    13
100
AcDbLine
 10
196.6710090472188
 20
-19.47277156716154
 30
0.0
 11
196.6710090472188
 21
-18.57278345142549
 31
0.0
  0
LINE
  5
20F
330
1F
100
AcDbEntity
  8
0
  6
Continuous
 62
     7
370
    13
100
AcDbLine
 10
196.3710130086401
 20
-19.77279234972229
 30
0.0
 11
195.4710248929041
 21
-19.77279234972229
 31
0.0
  0
LINE
  5
210
330
1F
100
AcDbEntity
  8
0
  6
Continuous
 62
     7
370
    13
100
AcDbLine
 10
206.4710116086935
 20
-9.072776928529493
 30
0.0
 11
202.5285034580156
 21
-9.072776928529493
 31
0.0
  0
LINE
  5
211
330
1F
100
AcDbEntity
  8
0
  6
Continuous
 62
     7
370
    13
100
AcDbLine
 10
206.4710116086935
 20
-9.072752184547426
 30
0.0
 11
206.6710419597221
 21
-8.872771321483015
 31
0.0
  0
LINE
  5
212
330
1F
100
AcDbEntity
  8
0
  6
Continuous
 62
     7
370
    13
100
AcDbLine
 10
206.8710228227865
 20
-9.072752184547426
 30
0.0
 11
206.6710419597221
 21
-8.872771321483015
 31
0.0
  0
LINE
  5
213
330
1F
100
AcDbEntity
  8
0
  6
Continuous
 62
     7
370
    13
100
AcDbLine
 10
206.8710228227865
 20
-9.072776928529493
 30
0.0
 11
217.6710286755115
 21
-9.072776928529493
 31
0.0
  0
LINE
  5
214
330
1F
100
AcDbEntity
  8
0
  6
Continuous
 62
     7
370
    13
100
AcDbLine
 10
215.6710220930108
 20
-12.07278680228046
 30
0.0
 11
215.6710220930108
 21
-13.57279173915595
 31
0.0
  0
LINE
  5
215
330
1F
100
AcDbEntity
  8
0
  6
Continuous
 62
     7
370
    13
100
AcDbLine
 10
216.6710253842612
 20
-12.87278448648431
 30
0.0
 11
216.6710253842612
 21
-13.57279173915595
 31
0.0
  0
LINE
  5
216
330
1F
100
AcDbEntity
  8
0
  6
Continuous
 62
     7
370
    13
100
AcDbLine
 10
216.9710214228398
 20
-12.57278844790562
 30
0.0
 11
217.8710095385759
 21
-12.57278844790562
 31
0.0
  0
LINE
  5
217
330
1F
100
AcDbEntity
  8
0
  6
Continuous
 62
     7
370
    13
100
AcDbLine
 10
216.1709989946539
 20
-11.5727851566553
 30
0.0
 11
217.6710286755115
 21
-11.5727851566553
 31
0.0
  0
LINE
  5
218
330
1F
100
AcDbEntity
  8
0
  6
Continuous
 62
     7
370
    13
100
AcDbLine
 10
218.1710055771546
 20
-12.87278448648431
 30
0.0
 11
218.1710055771546
 21
-19.47277156716154
 31
0.0
  0
LINE
  5
219
330
1F
100
AcDbEntity
  8
0
  6
Continuous
 62
     7
370
    13
100
AcDbLine
 10
221.1710154509055
 20
-7.072770346028847
 30
0.0
 11
221.1710154509055
 21
-19.57278674267582
 31
0.0
  0
LINE
  5
21A
330
1F
100
AcDbEntity
  8
0
  6
Continuous
 62
     7
370
    13
100
AcDbLine
 10
218.1710055771546
 20
-9.572803318136721
 30
0.0
 11
218.1710055771546
 21
-11.07278351103014
 31
0.0
  0
LINE
  5
21B
330
1F
100
AcDbEntity
  8
0
  6
Continuous
 62
     7
370
    13
100
AcDbLine
 10
216.9710214228398
 20
-19.77279234972229
 30
0.0
 11
217.8710095385759
 21
-19.77279234972229
 31
0.0
  0
LINE
  5
21C
330
1F
100
AcDbEntity
  8
0
  6
Continuous
 62
     7
370
    13
100
AcDbLine
 10
216.6710253842612
 20
-19.47277156716154
 30
0.0
 11
216.6710253842612
 21
-18.57278345142549
 31
0.0
  0
LINE
  5
21D
330
1F
100
AcDbEntity
  8
0
  6
Continuous
 62
     7
370
    13
100
AcDbLine
 10
215.6710220930108
 20
-20.77279564097262
 30
0.0
 11
215.6710220930108
 21
-18.57278345142549
 31
0.0
  0
LINE
  5
21E
330
1F
100
AcDbEntity
  8
0
  6
Continuous
 62
     7
370
    13
100
AcDbLine
 10
215.9710181315895
 20
-21.07276693556923
 30
0.0
 11
217.1710022859043
 21
-21.07276693556923
 31
0.0
  0
LINE
  5
21F
330
1F
100
AcDbEntity
  8
0
  6
Continuous
 62
     7
370
    13
100
AcDbLine
 10
217.1710022859043
 20
-23.07277351806988
 30
0.0
 11
217.1710022859043
 21
-21.07276693556923
 31
0.0
  0
LINE
  5
220
330
1F
100
AcDbEntity
  8
0
  6
Continuous
 62
     7
370
    13
100
AcDbLine
 10
228.6710153913009
 20
-23.07277351806988
 30
0.0
 11
217.1710022859043
 21
-23.07277351806988
 31
0.0
  0
LINE
  5
221
330
1F
100
AcDbEntity
  8
0
  6
Continuous
 62
     7
370
    13
100
AcDbLine
 10
224.6710022262996
 20
-20.07278838830098
 30
0.0
 11
221.6709923525486
 21
-20.07278838830098
 31
0.0
  0
LINE
  5
222
330
1F
100
AcDbEntity
  8
0
  6
Continuous
 62
     7
370
    13
100
AcDbLine
 10
229.170992292944
 20
-19.07278509705066
 30
0.0
 11
229.170992292944
 21
-22.57277187244472
 31
0.0
  0
LINE
  5
223
330
1F
100
AcDbEntity
  8
0
  6
Continuous
 62
     7
370
    13
100
AcDbLine
 10
228.1709890016937
 20
-18.57278345142549
 30
0.0
 11
228.6710153913009
 21
-18.57278345142549
 31
0.0
  0
LINE
  5
224
330
1F
100
AcDbEntity
  8
0
  6
Continuous
 62
     7
370
    13
100
AcDbLine
 10
228.1709890016937
 20
-19.82277519349736
 30
0.0
 11
228.1709890016937
 21
-18.57278345142549
 31
0.0
  0
LINE
  5
225
330
1F
100
AcDbEntity
  8
0
  6
Continuous
 62
     7
370
    13
100
AcDbLine
 10
226.9710048473789
 20
-19.82277519349736
 30
0.0
 11
228.1709890016937
 21
-19.82277519349736
 31
0.0
  0
LINE
  5
226
330
1F
100
AcDbEntity
  8
0
  6
Continuous
 62
     7
370
    13
100
AcDbLine
 10
226.9710048473789
 20
-16.77278247597133
 30
0.0
 11
226.9710048473789
 21
-19.82277519349736
 31
0.0
  0
LINE
  5
227
330
1F
100
AcDbEntity
  8
0
  6
Continuous
 62
     7
370
    13
100
AcDbLine
 10
226.9710048473789
 20
-16.77278247597133
 30
0.0
 11
226.7710239843145
 21
-16.57277686892485
 31
0.0
  0
LINE
  5
228
330
1F
100
AcDbEntity
  8
0
  6
Continuous
 62
     7
370
    13
100
AcDbLine
 10
226.9710048473789
 20
-16.37277126187837
 30
0.0
 11
226.7710239843145
 21
-16.57277686892485
 31
0.0
  0
LINE
  5
229
330
1F
100
AcDbEntity
  8
0
  6
Continuous
 62
     7
370
    13
100
AcDbLine
 10
226.9710048473789
 20
-16.37277126187837
 30
0.0
 11
226.9710048473789
 21
-13.32277854435233
 31
0.0
  0
LINE
  5
22A
330
1F
100
AcDbEntity
  8
0
  6
Continuous
 62
     7
370
    13
100
AcDbLine
 10
228.1709890016937
 20
-13.32277854435233
 30
0.0
 11
226.9710048473789
 21
-13.32277854435233
 31
0.0
  0
LINE
  5
22B
330
1F
100
AcDbEntity
  8
0
  6
Continuous
 62
     7
370
    13
100
AcDbLine
 10
228.1709890016937
 20
-14.57279503040627
 30
0.0
 11
228.1709890016937
 21
-13.32277854435233
 31
0.0
  0
LINE
  5
22C
330
1F
100
AcDbEntity
  8
0
  6
Continuous
 62
     7
370
    13
100
AcDbLine
 10
228.1709890016937
 20
-14.57279503040627
 30
0.0
 11
228.6710153913009
 21
-14.57279503040627
 31
0.0
  0
LINE
  5
22D
330
1F
100
AcDbEntity
  8
0
  6
Continuous
 62
     7
370
    13
100
AcDbLine
 10
229.170992292944
 20
-14.07279338478111
 30
0.0
 11
229.170992292944
 21
-12.07278680228046
 31
0.0
  0
LINE
  5
22E
330
1F
100
AcDbEntity
  8
0
  6
Continuous
 62
     7
370
    13
100
AcDbLine
 10
226.1710319071572
 20
-11.5727851566553
 30
0.0
 11
228.6710153913009
 21
-11.5727851566553
 31
0.0
  0
LINE
  5
22F
330
1F
100
AcDbEntity
  8
0
  6
Continuous
 62
     7
370
    13
100
AcDbLine
 10
225.1710286159068
 20
-19.57278674267582
 30
0.0
 11
225.1710286159068
 21
-12.57278844790562
 31
0.0
  0
LINE
  5
230
330
1F
100
AcDbEntity
  8
0
  6
Continuous
 62
     7
370
    13
100
AcDbLine
 10
198.2542774837493
 20
-6.072767054778524
 30
0.0
 11
220.1710121596552
 21
-6.072767054778524
 31
0.0
  0
LINE
  5
231
330
1F
100
AcDbEntity
  8
0
  6
Continuous
 62
     7
370
    13
100
AcDbLine
 10
186.6710256226797
 20
122.4271857352287
 30
0.0
 11
222.670995643799
 21
122.4271857352287
 31
0.0
  0
LINE
  5
232
330
1F
100
AcDbEntity
  8
0
  6
Continuous
 62
     7
370
    13
100
AcDbLine
 10
186.6710256226797
 20
124.6272226687579
 30
0.0
 11
193.0474508253828
 21
124.6272226687579
 31
0.0
  0
LINE
  5
233
330
1F
100
AcDbEntity
  8
0
  6
Continuous
 62
     7
370
    13
100
AcDbLine
 10
200.2945672690548
 20
124.6272226687579
 30
0.0
 11
222.1710187421559
 21
124.6272226687579
 31
0.0
  0
LINE
  5
234
330
1F
100
AcDbEntity
  8
0
  6
Continuous
 62
     7
370
    13
100
AcDbLine
 10
193.1710222718248
 20
-6.072767054778524
 30
0.0
 11
195.0876911227242
 21
-6.072767054778524
 31
0.0
  0
LINE
  5
235
330
1F
100
AcDbEntity
  8
0
  6
Continuous
 62
     7
370
    13
100
AcDbLine
 10
192.1710189805744
 20
-19.57278674267582
 30
0.0
 11
192.1710189805744
 21
-7.072770346028847
 31
0.0
  0
LINE
  5
236
330
1F
100
AcDbEntity
  8
0
  6
Continuous
 62
     7
370
    13
100
AcDbLine
 10
281.6709918757115
 20
127.2270728645235
 30
0.0
 11
281.6709918757115
 21
129.4271592860168
 31
0.0
  0
LINE
  5
237
330
1F
100
AcDbEntity
  8
0
  6
Continuous
 62
     7
370
    13
100
AcDbLine
 10
281.3709463491687
 20
123.7271355770936
 30
0.0
 11
281.1709654861043
 21
123.9270669521939
 31
0.0
  0
LINE
  5
238
330
1F
100
AcDbEntity
  8
0
  6
Continuous
 62
     7
370
    13
100
AcDbLine
 10
281.3708473732404
 20
124.12694883933
 30
0.0
 11
281.1707675342477
 21
123.9268690003373
 31
0.0
  0
LINE
  5
239
330
1F
100
AcDbEntity
  8
0
  6
Continuous
 62
     7
370
    13
100
AcDbLine
 10
281.3709958371328
 20
124.1270478152583
 30
0.0
 11
281.3709958371328
 21
126.9270273379807
 31
0.0
  0
LINE
  5
23A
330
1F
100
AcDbEntity
  8
0
  6
Continuous
 62
     7
370
    13
100
AcDbLine
 10
280.6709885844612
 20
129.4271592860168
 30
0.0
 11
280.6709885844612
 21
128.9271328964096
 31
0.0
  0
LINE
  5
23B
330
1F
100
AcDbEntity
  8
0
  6
Continuous
 62
     7
370
    13
100
AcDbLine
 10
278.6710314899246
 20
128.9271328964096
 30
0.0
 11
278.6710314899246
 21
129.9271361876599
 31
0.0
  0
LINE
  5
23C
330
1F
100
AcDbEntity
  8
0
  6
Continuous
 62
     7
370
    13
100
AcDbLine
 10
278.1710051003174
 20
130.4271625772672
 30
0.0
 11
277.4709978476458
 21
130.4271625772672
 31
0.0
  0
LINE
  5
23D
330
1F
100
AcDbEntity
  8
0
  6
Continuous
 62
     7
370
    13
100
AcDbLine
 10
276.9710209460027
 20
131.827028618718
 30
0.0
 11
276.9710209460027
 21
130.9271394789102
 31
0.0
  0
LINE
  5
23E
330
1F
100
AcDbEntity
  8
0
  6
Continuous
 62
     7
370
    13
100
AcDbLine
 10
266.6432787350059
 20
132.4008910508128
 30
0.0
 11
276.9710209460027
 21
131.8271275946463
 31
0.0
  0
LINE
  5
23F
330
1F
100
AcDbEntity
  8
0
  6
Continuous
 62
     7
370
    13
100
AcDbLine
 10
264.1155325029831
 20
129.5366761506448
 30
0.0
 11
274.5792676394194
 21
128.95539052393
 31
0.0
  0
LINE
  5
240
330
1F
100
AcDbEntity
  8
0
  6
Continuous
 62
     7
370
    13
100
AcDbLine
 10
266.6709919949208
 20
136.9271592264122
 30
0.0
 11
283.6709984582121
 21
136.9271592264122
 31
0.0
  0
LINE
  5
241
330
1F
100
AcDbEntity
  8
0
  6
Continuous
 62
     7
370
    13
100
AcDbLine
 10
283.6709984582121
 20
166.9272579639219
 30
0.0
 11
283.6709984582121
 21
136.9271592264122
 31
0.0
  0
LINE
  5
242
330
1F
100
AcDbEntity
  8
0
  6
Continuous
 62
     7
370
    13
100
AcDbLine
 10
183.6710157489288
 20
166.9272579639219
 30
0.0
 11
283.6709984582121
 21
166.9272579639219
 31
0.0
  0
LINE
  5
243
330
1F
100
AcDbEntity
  8
0
  6
Continuous
 62
     7
370
    13
100
AcDbLine
 10
264.6709854124201
 20
139.9272185881273
 30
0.0
 11
279.671034781175
 21
139.9272185881273
 31
0.0
  0
LINE
  5
244
330
1F
100
AcDbEntity
  8
0
  6
Continuous
 62
     7
370
    13
100
AcDbLine
 10
187.1710025243228
 20
164.4271755038499
 30
0.0
 11
195.1710288543254
 21
164.4271755038499
 31
0.0
  0
LINE
  5
245
330
1F
100
AcDbEntity
  8
0
  6
Continuous
 62
     7
370
    13
100
AcDbLine
 10
198.1709892401122
 20
164.4270270399575
 30
0.0
 11
269.1710249670286
 21
164.427224991814
 31
0.0
  0
LINE
  5
246
330
1F
100
AcDbEntity
  8
0
  6
Continuous
 62
     7
370
    13
100
AcDbLine
 10
272.1709853528155
 20
164.4269280640292
 30
0.0
 11
279.6709852932108
 21
164.4271755038499
 31
0.0
  0
LINE
  5
247
330
1F
100
AcDbEntity
  8
0
  6
Continuous
 62
     7
370
    13
100
AcDbLine
 10
280.6709885844612
 20
140.9272218793776
 30
0.0
 11
280.6709885844612
 21
163.4271722125995
 31
0.0
  0
LINE
  5
248
330
1F
100
AcDbEntity
  8
0
  6
Continuous
 62
     7
370
    13
100
AcDbLine
 10
266.1710150932777
 20
132.9001256329939
 30
0.0
 11
266.1710150932777
 21
136.427132836805
 31
0.0
  0
LINE
  5
249
330
1F
100
AcDbEntity
  8
0
  6
Continuous
 62
     7
370
    13
100
AcDbLine
 10
263.1710052195267
 20
130.535145315007
 30
0.0
 11
263.1710052195267
 21
138.4272383952339
 31
0.0
  0
LINE
  5
24A
330
1F
100
AcDbEntity
  8
0
  6
Continuous
 62
     7
370
    13
100
AcDbLine
 10
198.0427164370776
 20
156.9270270995621
 30
0.0
 11
199.3585024274653
 21
156.9270270995621
 31
0.0
  0
LINE
  5
24B
330
1F
100
AcDbEntity
  8
0
  6
Continuous
 62
     7
370
    13
100
AcDbLine
 10
193.9835156669724
 20
156.9270270995621
 30
0.0
 11
195.29930165736
 21
156.9270270995621
 31
0.0
  0
LINE
  5
24C
330
1F
100
AcDbEntity
  8
0
  6
Continuous
 62
     7
370
    13
100
AcDbLine
 10
197.6710123384692
 20
162.4728463122447
 30
0.0
 11
197.6710123384692
 21
163.9270006503502
 31
0.0
  0
LINE
  5
24D
330
1F
100
AcDbEntity
  8
0
  6
Continuous
 62
     7
370
    13
100
AcDbLine
 10
195.6710057559685
 20
162.4728463122447
 30
0.0
 11
195.6710057559685
 21
163.9271986022068
 31
0.0
  0
LINE
  5
24E
330
1F
100
AcDbEntity
  8
0
  6
Continuous
 62
     7
370
    13
100
AcDbLine
 10
272.0427125497808
 20
156.9270270995621
 30
0.0
 11
273.3584985401685
 21
156.9270270995621
 31
0.0
  0
LINE
  5
24F
330
1F
100
AcDbEntity
  8
0
  6
Continuous
 62
     7
370
    13
100
AcDbLine
 10
267.9835117796756
 20
156.9270270995621
 30
0.0
 11
269.2992977700633
 21
156.9270270995621
 31
0.0
  0
LINE
  5
250
330
1F
100
AcDbEntity
  8
0
  6
Continuous
 62
     7
370
    13
100
AcDbLine
 10
271.6710084511724
 20
162.4728463122447
 30
0.0
 11
271.6710084511724
 21
163.926901674422
 31
0.0
  0
LINE
  5
251
330
1F
100
AcDbEntity
  8
0
  6
Continuous
 62
     7
370
    13
100
AcDbLine
 10
269.6710018686717
 20
162.4728463122447
 30
0.0
 11
269.6710018686717
 21
163.9271986022068
 31
0.0
  0
LINE
  5
252
330
1F
100
AcDbEntity
  8
0
  6
Continuous
 62
     7
370
    13
100
AcDbLine
 10
195.29930165736
 20
128.4281952420133
 30
0.0
 11
193.9835156669724
 21
128.4281952420133
 31
0.0
  0
LINE
  5
253
330
1F
100
AcDbEntity
  8
0
  6
Continuous
 62
     7
370
    13
100
AcDbLine
 10
199.3584529395011
 20
128.4281952420133
 30
0.0
 11
198.0427164370776
 21
128.4281952420133
 31
0.0
  0
LINE
  5
254
330
1F
100
AcDbEntity
  8
0
  6
Continuous
 62
     7
370
    13
100
AcDbLine
 10
195.1710288543254
 20
-19.47277156716154
 30
0.0
 11
195.1710288543254
 21
-14.18884266067471
 31
0.0
  0
LINE
  5
255
330
1F
100
AcDbEntity
  8
0
  6
Continuous
 62
     7
370
    13
100
AcDbLine
 10
281.6709918757115
 20
127.1772384846408
 30
0.0
 11
281.6709918757115
 21
129.4273077499092
 31
0.0
  0
LINE
  5
256
330
1F
100
AcDbEntity
  8
0
  6
Continuous
 62
     7
370
    13
100
AcDbLine
 10
268.1709721878142
 20
136.9273571782687
 30
0.0
 11
283.6709984582121
 21
136.9273571782687
 31
0.0
  0
LINE
  5
257
330
1F
100
AcDbEntity
  8
0
  6
Continuous
 62
     7
370
    13
100
AcDbLine
 10
278.1710051003174
 20
-23.07262505417748
 30
0.0
 11
283.6709984582121
 21
-23.07262505417748
 31
0.0
  0
LINE
  5
258
330
1F
100
AcDbEntity
  8
0
  6
Continuous
 62
     7
370
    13
100
AcDbLine
 10
283.6709984582121
 20
-23.07262505417748
 30
0.0
 11
283.6709984582121
 21
136.9273076903046
 31
0.0
  0
LINE
  5
259
330
1F
100
AcDbEntity
  8
0
  6
Continuous
 62
     7
370
    13
100
AcDbLine
 10
281.3709958371328
 20
116.6273448026477
 30
0.0
 11
281.3709958371328
 21
-2.77261267855647
 31
0.0
  0
LINE
  5
25A
330
1F
100
AcDbEntity
  8
0
  6
Continuous
 62
     7
370
    13
100
AcDbLine
 10
281.1710149740684
 20
-20.07261518042651
 30
0.0
 11
278.8710123529891
 21
-20.07261518042651
 31
0.0
  0
LINE
  5
25B
330
1F
100
AcDbEntity
  8
0
  6
Continuous
 62
     7
370
    13
100
AcDbLine
 10
278.3709859633818
 20
-19.57261353480135
 30
0.0
 11
278.3709859633818
 21
-17.67262212781498
 31
0.0
  0
LINE
  5
25C
330
1F
100
AcDbEntity
  8
0
  6
Continuous
 62
     7
370
    13
100
AcDbLine
 10
277.1710018090671
 20
-22.07262176292716
 30
0.0
 11
277.1710018090671
 21
-17.67262212781498
 31
0.0
  0
LINE
  5
25D
330
1F
100
AcDbEntity
  8
0
  6
Continuous
 62
     7
370
    13
100
AcDbLine
 10
281.1710149740684
 20
133.9273473045178
 30
0.0
 11
278.8710123529891
 21
133.9273473045178
 31
0.0
  0
LINE
  5
25E
330
1F
100
AcDbEntity
  8
0
  6
Continuous
 62
     7
370
    13
100
AcDbLine
 10
278.3709859633818
 20
133.4273704028747
 30
0.0
 11
278.3709859633818
 21
131.5273295079242
 31
0.0
  0
LINE
  5
25F
330
1F
100
AcDbEntity
  8
0
  6
Continuous
 62
     7
370
    13
100
AcDbLine
 10
277.1710018090671
 20
132.9273440132674
 30
0.0
 11
277.1710018090671
 21
131.5273295079242
 31
0.0
  0
LINE
  5
260
330
1F
100
AcDbEntity
  8
0
  6
Continuous
 62
     7
370
    13
100
AcDbLine
 10
276.1709985178168
 20
133.9273473045178
 30
0.0
 11
270.6710051599221
 21
133.9273473045178
 31
0.0
  0
LINE
  5
261
330
1F
100
AcDbEntity
  8
0
  6
Continuous
 62
     7
370
    13
100
AcDbLine
 10
267.1709688965639
 20
135.9273538870184
 30
0.0
 11
267.1709688965639
 21
133.5273360904248
 31
0.0
  0
LINE
  5
262
330
1F
100
AcDbEntity
  8
0
  6
Continuous
 62
     7
370
    13
100
AcDbLine
 10
268.3710025388427
 20
134.5273393816751
 30
0.0
 11
268.3710025388427
 21
133.5273360904248
 31
0.0
  0
LINE
  5
263
330
1F
100
AcDbEntity
  8
0
  6
Continuous
 62
     7
370
    13
100
AcDbLine
 10
270.1709787703148
 20
134.5273393816751
 30
0.0
 11
270.1709787703148
 21
134.427373694125
 31
0.0
  0
LINE
  5
264
330
1F
100
AcDbEntity
  8
0
  6
Continuous
 62
     7
370
    13
100
AcDbLine
 10
281.6709918757115
 20
124.1273447430431
 30
0.0
 11
281.6709918757115
 21
133.4273209149105
 31
0.0
  0
LINE
  5
265
330
1F
100
AcDbEntity
  8
0
  6
Continuous
 62
     7
370
    13
100
AcDbLine
 10
281.6709918757115
 20
123.7273335289501
 30
0.0
 11
281.6709918757115
 21
116.9273408412264
 31
0.0
  0
LINE
  5
266
330
1F
100
AcDbEntity
  8
0
  6
Continuous
 62
     7
370
    13
100
AcDbLine
 10
281.6709918757115
 20
-10.27263736293389
 30
0.0
 11
281.6709918757115
 21
-19.57261353480135
 31
0.0
  0
LINE
  5
267
330
1F
100
AcDbEntity
  8
0
  6
Continuous
 62
     7
370
    13
100
AcDbLine
 10
281.6709918757115
 20
-9.872650892823003
 30
0.0
 11
281.6709918757115
 21
-3.072658205099287
 31
0.0
  0
LINE
  5
268
330
1F
100
AcDbEntity
  8
0
  6
Continuous
 62
     7
370
    13
100
AcDbLine
 10
281.6710413636756
 20
124.1273447430431
 30
0.0
 11
281.8710717147042
 21
123.9273638799787
 31
0.0
  0
LINE
  5
269
330
1F
100
AcDbEntity
  8
0
  6
Continuous
 62
     7
370
    13
100
AcDbLine
 10
281.6710413636756
 20
123.7273830169142
 30
0.0
 11
281.8710717147042
 21
123.9273638799787
 31
0.0
  0
LINE
  5
26A
330
1F
100
AcDbEntity
  8
0
  6
Continuous
 62
     7
370
    13
100
AcDbLine
 10
281.6710413636756
 20
-9.872626148840936
 30
0.0
 11
281.8710717147042
 21
-10.07263175588741
 31
0.0
  0
LINE
  5
26B
330
1F
100
AcDbEntity
  8
0
  6
Continuous
 62
     7
370
    13
100
AcDbLine
 10
281.6710413636756
 20
-10.27261261895183
 30
0.0
 11
281.87102222674
 21
-10.07265649986948
 31
0.0
  0
LINE
  5
26C
330
1F
100
AcDbEntity
  8
0
  6
Continuous
 62
     7
370
    13
100
AcDbLine
 10
229.170992292944
 20
-23.07314467780088
 30
0.0
 11
217.1710022859043
 21
-23.07314467780088
 31
0.0
  0
LINE
  5
26D
330
1F
100
AcDbEntity
  8
0
  6
Continuous
 62
     7
370
    13
100
AcDbLine
 10
196.1709826576116
 20
-23.07314467780088
 30
0.0
 11
184.6710190401791
 21
-23.07314467780088
 31
0.0
  0
LINE
  5
26E
330
1F
100
AcDbEntity
  8
0
  6
Continuous
 62
     7
370
    13
100
AcDbLine
 10
232.4210648494627
 20
-18.27209458134894
 30
0.0
 11
227.6710615880147
 21
-18.27209458134894
 31
0.0
  0
LINE
  5
26F
330
1F
100
AcDbEntity
  8
0
  6
Continuous
 62
     7
370
    13
100
AcDbLine
 10
232.4210648494627
 20
-17.97227175064472
 30
0.0
 11
227.6710615880147
 21
-17.97227175064472
 31
0.0
  0
LINE
  5
270
330
1F
100
AcDbEntity
  8
0
  6
Continuous
 62
     7
370
    13
100
AcDbLine
 10
232.4210648494627
 20
-16.47276169341058
 30
0.0
 11
227.6710615880147
 21
-16.47276169341058
 31
0.0
  0
LINE
  5
271
330
1F
100
AcDbEntity
  8
0
  6
Continuous
 62
     7
370
    13
100
AcDbLine
 10
232.4210648494627
 20
-16.77255978013272
 30
0.0
 11
227.6710615880147
 21
-16.77255978013272
 31
0.0
  0
LINE
  5
272
330
1F
100
AcDbEntity
  8
0
  6
Continuous
 62
     7
370
    13
100
AcDbLine
 10
232.4210648494627
 20
-18.57189266807109
 30
0.0
 11
227.6710615880147
 21
-18.57189266807109
 31
0.0
  0
LINE
  5
273
330
1F
100
AcDbEntity
  8
0
  6
Continuous
 62
     7
370
    13
100
AcDbLine
 10
232.4210648494627
 20
-17.07287749047828
 30
0.0
 11
227.6710615880147
 21
-17.07287749047828
 31
0.0
  0
LINE
  5
274
330
1F
100
AcDbEntity
  8
0
  6
Continuous
 62
     7
370
    13
100
AcDbLine
 10
232.4210648494627
 20
-17.67249840790464
 30
0.0
 11
227.6710615880147
 21
-17.67249840790464
 31
0.0
  0
LINE
  5
275
330
1F
100
AcDbEntity
  8
0
  6
Continuous
 62
     7
370
    13
100
AcDbLine
 10
232.4210648494627
 20
-17.37267557720043
 30
0.0
 11
227.6710615880147
 21
-17.37267557720043
 31
0.0
  0
LINE
  5
276
330
1F
100
AcDbEntity
  8
0
  6
Continuous
 62
     7
370
    13
100
AcDbLine
 10
232.4210648494627
 20
-16.17249347102916
 30
0.0
 11
227.6710615880147
 21
-16.17249347102916
 31
0.0
  0
LINE
  5
277
330
1F
100
AcDbEntity
  8
0
  6
Continuous
 62
     7
370
    13
100
AcDbLine
 10
232.4210648494627
 20
-15.57237767396146
 30
0.0
 11
227.6710615880147
 21
-15.57237767396146
 31
0.0
  0
LINE
  5
278
330
1F
100
AcDbEntity
  8
0
  6
Continuous
 62
     7
370
    13
100
AcDbLine
 10
232.4210648494627
 20
-15.87267064032494
 30
0.0
 11
227.6710615880147
 21
-15.87267064032494
 31
0.0
  0
LINE
  5
279
330
1F
100
AcDbEntity
  8
0
  6
Continuous
 62
     7
370
    13
100
AcDbLine
 10
227.6710615880147
 20
-14.17248688852851
 30
0.0
 11
226.9710543353431
 21
-14.17248688852851
 31
0.0
  0
LINE
  5
27A
330
1F
100
AcDbEntity
  8
0
  6
Continuous
 62
     7
370
    13
100
AcDbLine
 10
227.6710615880147
 20
-19.97277321278671
 30
0.0
 11
226.9710543353431
 21
-19.97277321278671
 31
0.0
  0
LINE
  5
27B
330
1F
100
AcDbEntity
  8
0
  6
Continuous
 62
     7
370
    13
100
AcDbLine
 10
227.6710615880147
 20
-19.97277321278671
 30
0.0
 11
227.6710615880147
 21
-14.17273432834918
 31
0.0
  0
LINE
  5
27C
330
1F
100
AcDbEntity
  8
0
  6
Continuous
 62
     7
370
    13
100
AcDbLine
 10
226.9710543353431
 20
-19.97277321278671
 30
0.0
 11
226.9710543353431
 21
-14.17273432834918
 31
0.0
  0
LINE
  5
27D
330
1F
100
AcDbEntity
  8
0
  6
Continuous
 62
     7
370
    13
100
AcDbLine
 10
263.6709821211698
 20
-46.49305152028683
 30
0.0
 11
283.6709984582121
 21
-46.49305152028683
 31
0.0
  0
LINE
  5
27E
330
1F
100
AcDbEntity
  8
0
  6
Continuous
 62
     7
370
    13
100
AcDbLine
 10
283.6709984582121
 20
-46.49305152028683
 30
0.0
 11
283.6709984582121
 21
-34.97762291406252
 31
0.0
  0
LINE
  5
27F
330
1F
100
AcDbEntity
  8
0
  6
Continuous
 62
     7
370
    13
100
AcDbLine
 10
263.6709821211698
 20
-46.49305152028683
 30
0.0
 11
263.6709821211698
 21
5.363876712544879
 31
0.0
  0
LINE
  5
280
330
1F
100
AcDbEntity
  8
0
  6
Continuous
 62
     7
370
    13
100
AcDbLine
 10
251.6469409635611
 20
108.2759291833136
 30
0.0
 11
260.3402441831131
 21
110.6052781671242
 31
0.0
  0
LINE
  5
281
330
1F
100
AcDbEntity
  8
0
  6
Continuous
 62
     7
370
    13
100
AcDbLine
 10
251.6469409635611
 20
108.2759291833136
 30
0.0
 11
253.4408796634089
 21
101.5807520036251
 31
0.0
  0
LINE
  5
282
330
1F
100
AcDbEntity
  8
0
  6
Continuous
 62
     7
370
    13
100
AcDbLine
 10
260.3402441831131
 20
110.6052781671242
 30
0.0
 11
262.134232370925
 21
103.9101257314178
 31
0.0
  0
LINE
  5
283
330
1F
100
AcDbEntity
  8
0
  6
Continuous
 62
     7
370
    13
100
AcDbLine
 10
298.9151224660745
 20
17.42738452155027
 30
0.0
 11
298.9151224660745
 21
100.4273855115243
 31
0.0
  0
LINE
  5
284
330
1F
100
AcDbEntity
  8
0
  6
Continuous
 62
     7
370
    13
100
AcDbLine
 10
298.9151224660745
 20
17.42738452155027
 30
0.0
 11
287.6414178206614
 21
17.42738452155027
 31
0.0
  0
LINE
  5
285
330
1F
100
AcDbEntity
  8
0
  6
Continuous
 62
     7
370
    13
100
AcDbLine
 10
298.9151224660745
 20
100.4273855115243
 30
0.0
 11
287.6414178206614
 21
100.4273855115243
 31
0.0
  0
LINE
  5
286
330
1F
100
AcDbEntity
  8
0
  6
Continuous
 62
     7
370
    13
100
AcDbLine
 10
249.9445549973607
 20
71.57471471041936
 30
0.0
 11
269.2630725803174
 21
76.75108152686153
 31
0.0
  0
LINE
  5
287
330
1F
100
AcDbEntity
  8
0
  6
Continuous
 62
     7
370
    13
100
AcDbLine
 10
249.9445549973607
 20
71.57471471041936
 30
0.0
 11
252.7409218987013
 21
61.13861860195175
 31
0.0
  0
LINE
  5
288
330
1F
100
AcDbEntity
  8
0
  6
Continuous
 62
     7
370
    13
100
AcDbLine
 10
269.2630725803174
 20
76.75108152686153
 30
0.0
 11
272.059439481658
 21
66.31501016237598
 31
0.0
  0
LINE
  5
289
330
1F
100
AcDbEntity
  8
0
  6
Continuous
 62
     7
370
    13
100
AcDbLine
 10
291.1264592308871
 20
166.9271095000295
 30
0.0
 11
331.2141350894526
 21
166.9271095000295
 31
0.0
  0
LINE
  5
28A
330
1F
100
AcDbEntity
  8
0
  6
Continuous
 62
     7
370
    13
100
AcDbLine
 10
291.1264592308871
 20
-23.07262505417748
 30
0.0
 11
331.2141350894526
 21
-23.07262505417748
 31
0.0
  0
LINE
  5
28B
330
1F
100
AcDbEntity
  8
0
  6
Continuous
 62
     7
370
    13
100
AcDbLine
 10
291.358805222495
 20
-23.07262505417748
 30
0.0
 11
331.2141350894526
 21
-23.07262505417748
 31
0.0
  0
LINE
  5
28C
330
1F
100
AcDbEntity
  8
0
  6
Continuous
 62
     7
370
    13
100
AcDbLine
 10
331.2141350894526
 20
166.9271095000295
 30
0.0
 11
331.2141350894526
 21
-23.07262505417748
 31
0.0
  0
LINE
  5
28D
330
1F
100
AcDbEntity
  8
0
  6
Continuous
 62
     7
370
    13
100
AcDbLine
 10
281.3709958371328
 20
-2.77261267855647
 30
0.0
 11
281.6709918757115
 21
-3.072658205099287
 31
0.0
  0
LINE
  5
28E
330
1F
100
AcDbEntity
  8
0
  6
Continuous
 62
     7
370
    13
100
AcDbLine
 10
278.3709859633818
 20
119.9271032751567
 30
0.0
 11
278.3709859633818
 21
124.8028059655044
 31
0.0
  0
LINE
  5
28F
330
1F
100
AcDbEntity
  8
0
  6
Continuous
 62
     7
370
    13
100
AcDbLine
 10
281.3709958371328
 20
119.9271032751567
 30
0.0
 11
281.3709958371328
 21
123.7271850650577
 31
0.0
  0
LINE
  5
290
330
1F
100
AcDbEntity
  8
0
  6
Continuous
 62
     7
370
    13
100
AcDbLine
 10
280.3709925458825
 20
118.9270999839064
 30
0.0
 11
279.3709892546321
 21
118.9270999839064
 31
0.0
  0
LINE
  5
291
330
1F
100
AcDbEntity
  8
0
  6
Continuous
 62
     7
370
    13
100
AcDbLine
 10
281.3709958371328
 20
116.6273448026477
 30
0.0
 11
281.6709918757115
 21
116.9273408412264
 31
0.0
  0
LINE
  5
292
330
1F
100
AcDbEntity
  8
0
  6
Continuous
 62
     7
370
    13
100
AcDbLine
 10
311.9435713437415
 20
-23.07262505417748
 30
0.0
 11
311.9435713437415
 21
58.92737264454627
 31
0.0
  0
LINE
  5
293
330
1F
100
AcDbEntity
  8
0
  6
Continuous
 62
     7
370
    13
100
AcDbLine
 10
311.9435713437415
 20
-23.07262505417748
 30
0.0
 11
286.4060497719911
 21
-23.07262505417748
 31
0.0
  0
LINE
  5
294
330
1F
100
AcDbEntity
  8
0
  6
Continuous
 62
     7
370
    13
100
AcDbLine
 10
311.9435713437415
 20
58.92737264454627
 30
0.0
 11
286.4060497719911
 21
58.92737264454627
 31
0.0
  0
LINE
  5
295
330
1F
100
AcDbEntity
  8
0
  6
Continuous
 62
     7
370
    13
100
AcDbLine
 10
311.9435713437415
 20
58.92737264454627
 30
0.0
 11
311.9435713437415
 21
166.9271095000295
 31
0.0
  0
LINE
  5
296
330
1F
100
AcDbEntity
  8
0
  6
Continuous
 62
     7
370
    13
100
AcDbLine
 10
311.9435713437415
 20
166.9271095000295
 30
0.0
 11
286.4060497719911
 21
166.9271095000295
 31
0.0
  0
LINE
  5
297
330
1F
100
AcDbEntity
  8
0
  6
Continuous
 62
     7
370
    13
100
AcDbLine
 10
311.9435713437415
 20
166.9271095000295
 30
0.0
 11
311.5316830182564
 21
167.7112957796926
 31
0.0
  0
LINE
  5
298
330
1F
100
AcDbEntity
  8
0
  6
Continuous
 62
     7
370
    13
100
AcDbLine
 10
311.9435713437415
 20
58.92737264454627
 30
0.0
 11
311.9435713437415
 21
58.55900898351683
 31
0.0
  0
LINE
  5
299
330
1F
100
AcDbEntity
  8
0
  6
Continuous
 62
     7
370
    13
100
AcDbLine
 10
311.9435713437415
 20
-23.07262505417748
 30
0.0
 11
311.9435713437415
 21
-22.17248847454903
 31
0.0
  0
LINE
  5
29A
330
1F
100
AcDbEntity
  8
0
  6
Continuous
 62
     7
370
    13
100
AcDbLine
 10
181.9438363126974
 20
-162.5134140708433
 30
0.0
 11
312.829653341556
 21
-162.5134140708433
 31
0.0
  0
LINE
  5
29B
330
1F
100
AcDbEntity
  8
0
  6
Continuous
 62
     7
370
    13
100
AcDbLine
 10
312.829653341556
 20
-162.5134140708433
 30
0.0
 11
312.829653341556
 21
-134.7225694001827
 31
0.0
  0
LINE
  5
29C
330
1F
100
AcDbEntity
  8
0
  6
Continuous
 62
     7
370
    13
100
AcDbLine
 10
312.829653341556
 20
-134.7225694001827
 30
0.0
 11
181.9438363126974
 21
-134.7225694001827
 31
0.0
  0
LINE
  5
29D
330
1F
100
AcDbEntity
  8
0
  6
Continuous
 62
     7
370
    13
100
AcDbLine
 10
181.9438363126974
 20
-134.7225694001827
 30
0.0
 11
181.9438363126974
 21
-162.5134140708433
 31
0.0
  0
LINE
  5
29E
330
1F
100
AcDbEntity
  8
0
  6
Continuous
 62
     7
370
    13
100
AcDbLine
 10
181.9438363126974
 20
-162.5134140708433
 30
0.0
 11
312.829653341556
 21
-162.5134140708433
 31
0.0
  0
LINE
  5
29F
330
1F
100
AcDbEntity
  8
0
  6
Continuous
 62
     7
370
    13
100
AcDbLine
 10
312.829653341556
 20
-162.5134140708433
 30
0.0
 11
181.9438363126974
 21
-162.5134140708433
 31
0.0
  0
ARC
  5
2A0
330
1F
100
AcDbEntity
  8
0
  6
Continuous
 62
     7
370
    13
100
AcDbCircle
 10
-238.1315800067823
 20
82.69146827758232
 30
0.0
 40
1.000000004940205
100
AcDbArc
 50
270.0
 51
0.0
  0
ARC
  5
2A1
330
1F
100
AcDbEntity
  8
0
  6
Continuous
 62
     7
370
    13
100
AcDbCircle
 10
-238.1315800067823
 20
70.69140403859637
 30
0.0
 40
1.000000004940205
100
AcDbArc
 50
0.0
 51
90.0
  0
ARC
  5
2A2
330
1F
100
AcDbEntity
  8
0
  6
Continuous
 62
     7
370
    13
100
AcDbCircle
 10
-238.1315800067823
 20
32.6914274349765
 30
0.0
 40
1.000000004940205
100
AcDbArc
 50
269.9970092773438
 51
0.0
  0
ARC
  5
2A3
330
1F
100
AcDbEntity
  8
0
  6
Continuous
 62
     7
370
    13
100
AcDbCircle
 10
-238.1315800067823
 20
20.6914126839547
 30
0.0
 40
1.000000004940205
100
AcDbArc
 50
0.0
 51
90.0019989013672
  0
ARC
  5
2A4
330
1F
100
AcDbEntity
  8
0
  6
Continuous
 62
     7
370
    13
100
AcDbCircle
 10
-238.1315800067823
 20
-12.30862169535976
 30
0.0
 40
1.000000004940205
100
AcDbArc
 50
270.0
 51
0.0
  0
ARC
  5
2A5
330
1F
100
AcDbEntity
  8
0
  6
Continuous
 62
     7
370
    13
100
AcDbCircle
 10
-314.8315652106758
 20
-18.80859360052273
 30
0.0
 40
1.000000004940205
100
AcDbArc
 50
180.0
 51
270.0
  0
ARC
  5
2A6
330
1F
100
AcDbEntity
  8
0
  6
Continuous
 62
     7
370
    13
100
AcDbCircle
 10
-323.4315093858895
 20
-20.30862328138028
 30
0.0
 40
1.000000004940205
100
AcDbArc
 50
270.0
 51
0.0
  0
ARC
  5
2A7
330
1F
100
AcDbEntity
  8
0
  6
Continuous
 62
     7
370
    13
100
AcDbCircle
 10
-323.4315093858895
 20
127.6914184319903
 30
0.0
 40
1.000000004940205
100
AcDbArc
 50
270.0
 51
0.0
  0
ARC
  5
2A8
330
1F
100
AcDbEntity
  8
0
  6
Continuous
 62
     7
370
    13
100
AcDbCircle
 10
-314.8315652106758
 20
127.6914184319903
 30
0.0
 40
1.000000004940205
100
AcDbArc
 50
180.0
 51
270.0
  0
ARC
  5
2A9
330
1F
100
AcDbEntity
  8
0
  6
Continuous
 62
     7
370
    13
100
AcDbCircle
 10
-269.4315296102286
 20
143.6914216040313
 30
0.0
 40
1.000000004940205
100
AcDbArc
 50
0.0
 51
90.0
  0
ARC
  5
2AA
330
1F
100
AcDbEntity
  8
0
  6
Continuous
 62
     7
370
    13
100
AcDbCircle
 10
-260.8314617151045
 20
143.6914216040313
 30
0.0
 40
1.000000004940205
100
AcDbArc
 50
90.0
 51
180.0
  0
ARC
  5
2AB
330
1F
100
AcDbEntity
  8
0
  6
Continuous
 62
     7
370
    13
100
AcDbCircle
 10
-318.3315519860698
 20
127.8914487830189
 30
0.0
 40
1.000000004940205
100
AcDbArc
 50
270.0
 51
0.0
  0
ARC
  5
2AC
330
1F
100
AcDbEntity
  8
0
  6
Continuous
 62
     7
370
    13
100
AcDbCircle
 10
-319.9315226104954
 20
127.8914487830189
 30
0.0
 40
1.000000004940205
100
AcDbArc
 50
180.0
 51
270.0
  0
ARC
  5
2AD
330
1F
100
AcDbEntity
  8
0
  6
Continuous
 62
     7
370
    13
100
AcDbCircle
 10
-319.9315226104954
 20
129.1374072560138
 30
0.0
 40
1.000000004940205
100
AcDbArc
 50
114.6240081787109
 51
180.0
  0
ARC
  5
2AE
330
1F
100
AcDbEntity
  8
0
  6
Continuous
 62
     7
370
    13
100
AcDbCircle
 10
-320.4314500241744
 20
130.2284189133061
 30
0.0
 40
0.1999999889060184
100
AcDbArc
 50
294.6240234375
 51
0.0
  0
ARC
  5
2AF
330
1F
100
AcDbEntity
  8
0
  6
Continuous
 62
     7
370
    13
100
AcDbCircle
 10
-320.7314708067352
 20
130.6914777937054
 30
0.0
 40
0.5000000024701023
100
AcDbArc
 50
0.0
 51
101.5370025634766
  0
ARC
  5
2B0
330
1F
100
AcDbEntity
  8
0
  6
Continuous
 62
     7
370
    13
100
AcDbCircle
 10
-320.4314500241744
 20
129.2213883311488
 30
0.0
 40
2.000000009880409
100
AcDbArc
 50
101.5370025634766
 51
180.0
  0
ARC
  5
2B1
330
1F
100
AcDbEntity
  8
0
  6
Continuous
 62
     7
370
    13
100
AcDbCircle
 10
-317.8314761084985
 20
129.2213883311488
 30
0.0
 40
2.000000009880409
100
AcDbArc
 50
0.0
 51
78.4630126953125
  0
ARC
  5
2B2
330
1F
100
AcDbEntity
  8
0
  6
Continuous
 62
     7
370
    13
100
AcDbCircle
 10
-317.5315295578839
 20
130.6914777937054
 30
0.0
 40
0.5000000024701023
100
AcDbArc
 50
78.4630126953125
 51
180.0
  0
ARC
  5
2B3
330
1F
100
AcDbEntity
  8
0
  6
Continuous
 62
     7
370
    13
100
AcDbCircle
 10
-317.8314761084985
 20
130.2284189133061
 30
0.0
 40
0.1999999889060184
100
AcDbArc
 50
180.0
 51
245.376007080078
  0
ARC
  5
2B4
330
1F
100
AcDbEntity
  8
0
  6
Continuous
 62
     7
370
    13
100
AcDbCircle
 10
-318.3315519860698
 20
129.1374072560138
 30
0.0
 40
1.000000004940205
100
AcDbArc
 50
0.0
 51
65.37600708007812
  0
ARC
  5
2B5
330
1F
100
AcDbEntity
  8
0
  6
Continuous
 62
     7
370
    13
100
AcDbCircle
 10
-264.3315474664269
 20
143.4913912530028
 30
0.0
 40
1.000000004940205
100
AcDbArc
 50
0.0
 51
90.0
  0
ARC
  5
2B6
330
1F
100
AcDbEntity
  8
0
  6
Continuous
 62
     7
370
    13
100
AcDbCircle
 10
-265.9315428348345
 20
143.4913912530028
 30
0.0
 40
1.000000004940205
100
AcDbArc
 50
90.0
 51
180.0
  0
ARC
  5
2B7
330
1F
100
AcDbEntity
  8
0
  6
Continuous
 62
     7
370
    13
100
AcDbCircle
 10
-265.9315428348345
 20
142.2454327800078
 30
0.0
 40
1.000000004940205
100
AcDbArc
 50
180.0
 51
245.376007080078
  0
ARC
  5
2B8
330
1F
100
AcDbEntity
  8
0
  6
Continuous
 62
     7
370
    13
100
AcDbCircle
 10
-266.4315692244418
 20
141.1544211227156
 30
0.0
 40
0.1999999889060184
100
AcDbArc
 50
0.0
 51
65.37600708007812
  0
ARC
  5
2B9
330
1F
100
AcDbEntity
  8
0
  6
Continuous
 62
     7
370
    13
100
AcDbCircle
 10
-266.7316147509846
 20
140.6913622423162
 30
0.0
 40
0.5000000024701023
100
AcDbArc
 50
258.4630126953125
 51
0.0
  0
ARC
  5
2BA
330
1F
100
AcDbEntity
  8
0
  6
Continuous
 62
     7
370
    13
100
AcDbCircle
 10
-266.4315692244418
 20
142.1614517048729
 30
0.0
 40
2.000000009880409
100
AcDbArc
 50
180.0
 51
258.4630126953125
  0
ARC
  5
2BB
330
1F
100
AcDbEntity
  8
0
  6
Continuous
 62
     7
370
    13
100
AcDbCircle
 10
-263.8314221008914
 20
142.1614517048729
 30
0.0
 40
2.000000009880409
100
AcDbArc
 50
281.5370178222656
 51
0.0
  0
ARC
  5
2BC
330
1F
100
AcDbEntity
  8
0
  6
Continuous
 62
     7
370
    13
100
AcDbCircle
 10
-263.5314755502768
 20
140.6913622423162
 30
0.0
 40
0.5000000024701023
100
AcDbArc
 50
180.0
 51
281.5370178222656
  0
ARC
  5
2BD
330
1F
100
AcDbEntity
  8
0
  6
Continuous
 62
     7
370
    13
100
AcDbCircle
 10
-263.8314221008914
 20
141.1544211227156
 30
0.0
 40
0.1999999889060184
100
AcDbArc
 50
114.6240081787109
 51
180.0
  0
ARC
  5
2BE
330
1F
100
AcDbEntity
  8
0
  6
Continuous
 62
     7
370
    13
100
AcDbCircle
 10
-264.3315474664269
 20
142.2454327800078
 30
0.0
 40
1.000000004940205
100
AcDbArc
 50
294.6240234375
 51
0.0
  0
ARC
  5
2BF
330
1F
100
AcDbEntity
  8
0
  6
Continuous
 62
     7
370
    13
100
AcDbCircle
 10
-318.3315519860698
 20
-18.86258496939263
 30
0.0
 40
1.000000004940205
100
AcDbArc
 50
0.0
 51
65.37600708007812
  0
ARC
  5
2C0
330
1F
100
AcDbEntity
  8
0
  6
Continuous
 62
     7
370
    13
100
AcDbCircle
 10
-317.8314761084985
 20
-17.77157331210037
 30
0.0
 40
0.1999999889060184
100
AcDbArc
 50
180.0
 51
245.376007080078
  0
ARC
  5
2C1
330
1F
100
AcDbEntity
  8
0
  6
Continuous
 62
     7
370
    13
100
AcDbCircle
 10
-317.5315295578839
 20
-17.30866289559344
 30
0.0
 40
0.5000000024701023
100
AcDbArc
 50
78.4630126953125
 51
180.0
  0
ARC
  5
2C2
330
1F
100
AcDbEntity
  8
0
  6
Continuous
 62
     7
370
    13
100
AcDbCircle
 10
-317.8314761084985
 20
-18.77855440629355
 30
0.0
 40
2.000000009880409
100
AcDbArc
 50
0.0
 51
78.4630126953125
  0
ARC
  5
2C3
330
1F
100
AcDbEntity
  8
0
  6
Continuous
 62
     7
370
    13
100
AcDbCircle
 10
-320.4314500241744
 20
-18.77855440629355
 30
0.0
 40
2.000000009880409
100
AcDbArc
 50
101.5370025634766
 51
180.0
  0
ARC
  5
2C4
330
1F
100
AcDbEntity
  8
0
  6
Continuous
 62
     7
370
    13
100
AcDbCircle
 10
-320.7314708067352
 20
-17.30866289559344
 30
0.0
 40
0.5000000024701023
100
AcDbArc
 50
0.0
 51
101.5370025634766
  0
ARC
  5
2C5
330
1F
100
AcDbEntity
  8
0
  6
Continuous
 62
     7
370
    13
100
AcDbCircle
 10
-320.4314500241744
 20
-17.77157331210037
 30
0.0
 40
0.1999999889060184
100
AcDbArc
 50
294.6240234375
 51
0.0
  0
ARC
  5
2C6
330
1F
100
AcDbEntity
  8
0
  6
Continuous
 62
     7
370
    13
100
AcDbCircle
 10
-319.9315226104954
 20
-18.86258496939263
 30
0.0
 40
1.000000004940205
100
AcDbArc
 50
114.6240081787109
 51
180.0
  0
ARC
  5
2C7
330
1F
100
AcDbEntity
  8
0
  6
Continuous
 62
     7
370
    13
100
AcDbCircle
 10
-319.9315226104954
 20
-20.1085434423876
 30
0.0
 40
1.000000004940205
100
AcDbArc
 50
180.0
 51
270.0
  0
ARC
  5
2C8
330
1F
100
AcDbEntity
  8
0
  6
Continuous
 62
     7
370
    13
100
AcDbCircle
 10
-318.3315519860698
 20
-20.1085434423876
 30
0.0
 40
1.000000004940205
100
AcDbArc
 50
270.0
 51
0.0
  0
ARC
  5
2C9
330
1F
100
AcDbEntity
  8
0
  6
Continuous
 62
     7
370
    13
100
AcDbCircle
 10
-285.131536743691
 20
-19.30861999012996
 30
0.0
 40
1.000000004940205
100
AcDbArc
 50
90.0
 51
180.0
  0
ARC
  5
2CA
330
1F
100
AcDbEntity
  8
0
  6
Continuous
 62
     7
370
    13
100
AcDbCircle
 10
-314.6315101156652
 20
-18.80859360052273
 30
0.0
 40
1.000000004940205
100
AcDbArc
 50
270.0
 51
0.0
  0
ARC
  5
2CB
330
1F
100
AcDbEntity
  8
0
  6
Continuous
 62
     7
370
    13
100
AcDbCircle
 10
-284.6315103540837
 20
-18.80859360052273
 30
0.0
 40
0.5000000024701023
100
AcDbArc
 50
0.0
 51
90.0
  0
ARC
  5
2CC
330
1F
100
AcDbEntity
  8
0
  6
Continuous
 62
     7
370
    13
100
AcDbCircle
 10
-284.6315103540837
 20
-22.80860676552402
 30
0.0
 40
0.5000000024701023
100
AcDbArc
 50
270.0
 51
0.0
  0
ARC
  5
2CD
330
1F
100
AcDbEntity
  8
0
  6
Continuous
 62
     7
370
    13
100
AcDbCircle
 10
-309.1315415017525
 20
-6.808529361536785
 30
0.0
 40
3.499999920634536
100
AcDbArc
 50
90.0
 51
180.0
  0
ARC
  5
2CE
330
1F
100
AcDbEntity
  8
0
  6
Continuous
 62
     7
370
    13
100
AcDbCircle
 10
-309.1315415017525
 20
-6.808529361536785
 30
0.0
 40
1.499999910754127
100
AcDbArc
 50
90.0
 51
180.0
  0
ARC
  5
2CF
330
1F
100
AcDbEntity
  8
0
  6
Continuous
 62
     7
370
    13
100
AcDbCircle
 10
-311.131498596289
 20
-22.80860676552402
 30
0.0
 40
0.5000000024701023
100
AcDbArc
 50
270.0
 51
0.0
  0
ARC
  5
2D0
330
1F
100
AcDbEntity
  8
0
  6
Continuous
 62
     7
370
    13
100
AcDbCircle
 10
-294.1315168769797
 20
-6.808529361536785
 30
0.0
 40
1.499999910754127
100
AcDbArc
 50
0.0
 51
90.0
  0
ARC
  5
2D1
330
1F
100
AcDbEntity
  8
0
  6
Continuous
 62
     7
370
    13
100
AcDbCircle
 10
-292.1315102944791
 20
-22.80860676552402
 30
0.0
 40
0.5000000024701023
100
AcDbArc
 50
180.0
 51
270.0
  0
ARC
  5
2D2
330
1F
100
AcDbEntity
  8
0
  6
Continuous
 62
     7
370
    13
100
AcDbCircle
 10
-294.1315168769797
 20
-6.808529361536785
 30
0.0
 40
3.499999920634536
100
AcDbArc
 50
0.0
 51
90.0
  0
ARC
  5
2D3
330
1F
100
AcDbEntity
  8
0
  6
Continuous
 62
     7
370
    13
100
AcDbCircle
 10
-333.6314984174751
 20
-22.80860676552402
 30
0.0
 40
0.5000000024701023
100
AcDbArc
 50
180.0
 51
270.0
  0
ARC
  5
2D4
330
1F
100
AcDbEntity
  8
0
  6
Continuous
 62
     7
370
    13
100
AcDbCircle
 10
-238.1315800067823
 20
130.6914777937054
 30
0.0
 40
0.5000000024701023
100
AcDbArc
 50
0.0
 51
90.0
  0
ARC
  5
2D5
330
1F
100
AcDbEntity
  8
0
  6
Continuous
 62
     7
370
    13
100
AcDbCircle
 10
-248.6315403329645
 20
146.1914545761392
 30
0.0
 40
0.5000000024701023
100
AcDbArc
 50
0.0
 51
90.0
  0
ARC
  5
2D6
330
1F
100
AcDbEntity
  8
0
  6
Continuous
 62
     7
370
    13
100
AcDbCircle
 10
-249.1314677466435
 20
125.6914118494897
 30
0.0
 40
1.000000004940205
100
AcDbArc
 50
180.0
 51
0.0
  0
ARC
  5
2D7
330
1F
100
AcDbEntity
  8
0
  6
Continuous
 62
     7
370
    13
100
AcDbCircle
 10
-238.6316063963895
 20
125.6914118494897
 30
0.0
 40
1.000000004940205
100
AcDbArc
 50
180.0
 51
0.0
  0
ARC
  5
2D8
330
1F
100
AcDbEntity
  8
0
  6
Continuous
 62
     7
370
    13
100
AcDbCircle
 10
-292.1315102944791
 20
146.1914545761392
 30
0.0
 40
0.5000000024701023
100
AcDbArc
 50
90.0
 51
180.0
  0
ARC
  5
2D9
330
1F
100
AcDbEntity
  8
0
  6
Continuous
 62
     7
370
    13
100
AcDbCircle
 10
-331.1314901893493
 20
131.1914052073844
 30
0.0
 40
0.5000000024701023
100
AcDbArc
 50
0.0
 51
90.0
  0
ARC
  5
2DA
330
1F
100
AcDbEntity
  8
0
  6
Continuous
 62
     7
370
    13
100
AcDbCircle
 10
-291.6314839048719
 20
128.1914448215975
 30
0.0
 40
1.499999910754127
100
AcDbArc
 50
270.0
 51
0.0
  0
ARC
  5
2DB
330
1F
100
AcDbEntity
  8
0
  6
Continuous
 62
     7
370
    13
100
AcDbCircle
 10
-291.6314839048719
 20
128.1914448215975
 30
0.0
 40
3.499999920634536
100
AcDbArc
 50
270.0
 51
0.0
  0
ARC
  5
2DC
330
1F
100
AcDbEntity
  8
0
  6
Continuous
 62
     7
370
    13
100
AcDbCircle
 10
-252.6314545220375
 20
142.1913919231738
 30
0.0
 40
2.499999915694332
100
AcDbArc
 50
0.0
 51
90.0
  0
ARC
  5
2DD
330
1F
100
AcDbEntity
  8
0
  6
Continuous
 62
     7
370
    13
100
AcDbCircle
 10
-329.6314605084917
 20
122.1914250740956
 30
0.0
 40
2.499999915694332
100
AcDbArc
 50
90.0
 51
180.0
  0
ARC
  5
2DE
330
1F
100
AcDbEntity
  8
0
  6
Continuous
 62
     7
370
    13
100
AcDbCircle
 10
-329.6314605084917
 20
-18.80859360052273
 30
0.0
 40
2.499999915694332
100
AcDbArc
 50
180.0
 51
270.0
  0
ARC
  5
2DF
330
1F
100
AcDbEntity
  8
0
  6
Continuous
 62
     7
370
    13
100
AcDbCircle
 10
-294.7305439388365
 20
130.0914362285839
 30
0.0
 40
0.6000000029641228
100
AcDbArc
 50
282.3110046386719
 51
90.0
  0
ARC
  5
2E0
330
1F
100
AcDbEntity
  8
0
  6
Continuous
 62
     7
370
    13
100
AcDbCircle
 10
-303.5324979836441
 20
130.0914362285839
 30
0.0
 40
0.6000000029641228
100
AcDbArc
 50
90.0
 51
257.6890258789062
  0
ARC
  5
2E1
330
1F
100
AcDbEntity
  8
0
  6
Continuous
 62
     7
370
    13
100
AcDbCircle
 10
-294.631568010569
 20
-6.008655397243274
 30
0.0
 40
0.5000000024701023
100
AcDbArc
 50
90.0
 51
180.0
  0
ARC
  5
2E2
330
1F
100
AcDbEntity
  8
0
  6
Continuous
 62
     7
370
    13
100
AcDbCircle
 10
-308.6315151121453
 20
-6.008655397243274
 30
0.0
 40
0.5000000024701023
100
AcDbArc
 50
0.0
 51
90.0
  0
ARC
  5
2E3
330
1F
100
AcDbEntity
  8
0
  6
Continuous
 62
     7
370
    13
100
AcDbCircle
 10
-292.4524892298505
 20
-20.01357603921497
 30
0.0
 40
0.3000000014820614
100
AcDbArc
 50
291.8020019531251
 51
5.826014041900637
  0
ARC
  5
2E4
330
1F
100
AcDbEntity
  8
0
  6
Continuous
 62
     7
370
    13
100
AcDbCircle
 10
-293.9014225877399
 20
-6.508582810922235
 30
0.0
 40
1.000000004940205
100
AcDbArc
 50
1.753013610839844
 51
90.00001525878905
  0
ARC
  5
2E5
330
1F
100
AcDbEntity
  8
0
  6
Continuous
 62
     7
370
    13
100
AcDbCircle
 10
-309.3614378391358
 20
-6.508582810922235
 30
0.0
 40
1.000000004940205
100
AcDbArc
 50
90.0
 51
178.2469940185547
  0
ARC
  5
2E6
330
1F
100
AcDbEntity
  8
0
  6
Continuous
 62
     7
370
    13
100
AcDbCircle
 10
-310.8104949169356
 20
-20.01357603921497
 30
0.0
 40
0.3000000014820614
100
AcDbArc
 50
174.1739959716797
 51
248.198989868164
  0
ARC
  5
2E7
330
1F
100
AcDbEntity
  8
0
  6
Continuous
 62
     7
370
    13
100
AcDbCircle
 10
-330.131486898099
 20
127.6914184319903
 30
0.0
 40
0.5000000024701023
100
AcDbArc
 50
202.7100067138672
 51
0.0
  0
ARC
  5
2E8
330
1F
100
AcDbEntity
  8
0
  6
Continuous
 62
     7
370
    13
100
AcDbCircle
 10
-300.631587758071
 20
127.6914184319903
 30
0.0
 40
0.5000000024701023
100
AcDbArc
 50
270.0
 51
0.0
  0
ARC
  5
2E9
330
1F
100
AcDbEntity
  8
0
  6
Continuous
 62
     7
370
    13
100
AcDbCircle
 10
-311.131498596289
 20
146.1914545761392
 30
0.0
 40
0.5000000024701023
100
AcDbArc
 50
0.0
 51
90.0
  0
ARC
  5
2EA
330
1F
100
AcDbEntity
  8
0
  6
Continuous
 62
     7
370
    13
100
AcDbCircle
 10
-300.631587758071
 20
128.2914105091477
 30
0.0
 40
0.5000000024701023
100
AcDbArc
 50
0.0
 51
90.0
  0
ARC
  5
2EB
330
1F
100
AcDbEntity
  8
0
  6
Continuous
 62
     7
370
    13
100
AcDbCircle
 10
-331.1464602984997
 20
129.5984371298837
 30
0.0
 40
0.3000000014820614
100
AcDbArc
 50
116.5650024414062
 51
202.7110137939453
  0
ARC
  5
2EC
330
1F
100
AcDbEntity
  8
0
  6
Continuous
 62
     7
370
    13
100
AcDbCircle
 10
-333.6314984174751
 20
146.1914545761392
 30
0.0
 40
0.5000000024701023
100
AcDbArc
 50
90.0
 51
180.0
  0
ARC
  5
2ED
330
1F
100
AcDbEntity
  8
0
  6
Continuous
 62
     7
370
    13
100
AcDbCircle
 10
-330.6315627756703
 20
132.1913590106706
 30
0.0
 40
1.000000004940205
100
AcDbArc
 50
0.0
 51
90.0
  0
ARC
  5
2EE
330
1F
100
AcDbEntity
  8
0
  6
Continuous
 62
     7
370
    13
100
AcDbCircle
 10
-331.1815472650705
 20
134.1914645690995
 30
0.0
 40
1.000000004940205
100
AcDbArc
 50
180.0
 51
270.0
  0
ARC
  5
2EF
330
1F
100
AcDbEntity
  8
0
  6
Continuous
 62
     7
370
    13
100
AcDbCircle
 10
-331.1314901893493
 20
131.6914315969916
 30
0.0
 40
0.5000000024701023
100
AcDbArc
 50
0.0
 51
90.0
  0
ARC
  5
2F0
330
1F
100
AcDbEntity
  8
0
  6
Continuous
 62
     7
370
    13
100
AcDbCircle
 10
-331.6814746787495
 20
131.6914315969916
 30
0.0
 40
0.5000000024701023
100
AcDbArc
 50
90.0
 51
180.0
  0
CIRCLE
  5
2F1
330
1F
100
AcDbEntity
  8
0
  6
Continuous
 62
     7
370
    13
100
AcDbCircle
 10
-253.9737660612009
 20
61.68061078514438
 30
0.0
 40
9.999999662777327
  0
CIRCLE
  5
2F2
330
1F
100
AcDbEntity
  8
0
  6
Continuous
 62
     7
370
    13
100
AcDbCircle
 10
-269.1314840836858
 20
103.1914862602498
 30
0.0
 40
4.500000118887101
  0
CIRCLE
  5
2F3
330
1F
100
AcDbEntity
  8
0
  6
Continuous
 62
     7
370
    13
100
AcDbCircle
 10
-269.1314840836858
 20
20.1914357823116
 30
0.0
 40
4.500000118887101
  0
ARC
  5
2F4
330
1F
100
AcDbEntity
  8
0
  6
Continuous
 62
     7
370
    13
100
AcDbCircle
 10
-60.34166442754213
 20
-14.69114549663209
 30
0.0
 40
1.000000004940205
100
AcDbArc
 50
113.5781860351562
 51
180.0
  0
ARC
  5
2F5
330
1F
100
AcDbEntity
  8
0
  6
Continuous
 62
     7
370
    13
100
AcDbCircle
 10
-62.34167101004277
 20
-10.1085600178485
 30
0.0
 40
4.000000019760819
100
AcDbArc
 50
89.99999999999999
 51
127.708999633789
  0
ARC
  5
2F6
330
1F
100
AcDbEntity
  8
0
  6
Continuous
 62
     7
370
    13
100
AcDbCircle
 10
-44.34166125550109
 20
-9.308562333644659
 30
0.0
 40
1.000000004940205
100
AcDbArc
 50
0.0
 51
90.00001525878905
  0
ARC
  5
2F7
330
1F
100
AcDbEntity
  8
0
  6
Continuous
 62
     7
370
    13
100
AcDbCircle
 10
-43.34160847628664
 20
-17.55857711446879
 30
0.0
 40
1.500000007410307
100
AcDbArc
 50
0.0
 51
90.00001525878905
  0
ARC
  5
2F8
330
1F
100
AcDbEntity
  8
0
  6
Continuous
 62
     7
370
    13
100
AcDbCircle
 10
-43.34160847628664
 20
-18.55858040571911
 30
0.0
 40
1.500000007410307
100
AcDbArc
 50
270.0
 51
0.0
  0
ARC
  5
2F9
330
1F
100
AcDbEntity
  8
0
  6
Continuous
 62
     7
370
    13
100
AcDbCircle
 10
-31.34166795721103
 20
-22.30858037591679
 30
0.0
 40
1.000000004940205
100
AcDbArc
 50
270.0
 51
0.0000152587890461
  0
ARC
  5
2FA
330
1F
100
AcDbEntity
  8
0
  6
Continuous
 62
     7
370
    13
100
AcDbCircle
 10
-33.54165540277609
 20
-13.30857549864595
 30
0.0
 40
1.000000004940205
100
AcDbArc
 50
89.99999999999999
 51
180.0
  0
ARC
  5
2FB
330
1F
100
AcDbEntity
  8
0
  6
Continuous
 62
     7
370
    13
100
AcDbCircle
 10
-35.54166198527673
 20
-20.00855301085539
 30
0.0
 40
1.000000004940205
100
AcDbArc
 50
270.0
 51
0.0000152587890461
  0
ARC
  5
2FC
330
1F
100
AcDbEntity
  8
0
  6
Continuous
 62
     7
370
    13
100
AcDbCircle
 10
-38.84166789760638
 20
-20.00855301085539
 30
0.0
 40
1.000000004940205
100
AcDbArc
 50
180.0
 51
270.0
  0
ARC
  5
2FD
330
1F
100
AcDbEntity
  8
0
  6
Continuous
 62
     7
370
    13
100
AcDbCircle
 10
-41.34160189378599
 20
-16.29517413411668
 30
0.0
 40
1.500000007410307
100
AcDbArc
 50
0.0
 51
82.33775329589842
  0
ARC
  5
2FE
330
1F
100
AcDbEntity
  8
0
  6
Continuous
 62
     7
370
    13
100
AcDbCircle
 10
-42.14167380993604
 20
-7.108599632061669
 30
0.0
 40
1.000000004940205
100
AcDbArc
 50
0.0
 51
90.00001525878905
  0
ARC
  5
2FF
330
1F
100
AcDbEntity
  8
0
  6
Continuous
 62
     7
370
    13
100
AcDbCircle
 10
-62.34167101004277
 20
-10.1085600178485
 30
0.0
 40
1.800000008892368
100
AcDbArc
 50
232.2913208007812
 51
127.7090148925781
  0
ARC
  5
300
330
1F
100
AcDbEntity
  8
0
  6
Continuous
 62
     7
370
    13
100
AcDbCircle
 10
-62.34167101004277
 20
-10.1085600178485
 30
0.0
 40
4.000000019760819
100
AcDbArc
 50
232.2913208007812
 51
252.5424194335938
  0
ARC
  5
301
330
1F
100
AcDbEntity
  8
0
  6
Continuous
 62
     7
370
    13
100
AcDbCircle
 10
-64.115418620524
 20
-7.81427325662662
 30
0.0
 40
1.100000005434225
100
AcDbArc
 50
127.7090148925781
 51
307.7090225219727
  0
ARC
  5
302
330
1F
100
AcDbEntity
  8
0
  6
Continuous
 62
     7
370
    13
100
AcDbCircle
 10
-64.115418620524
 20
-12.40287152305245
 30
0.0
 40
1.100000005434225
100
AcDbArc
 50
52.29133605957035
 51
232.2913208007812
  0
ARC
  5
303
330
1F
100
AcDbEntity
  8
0
  6
Continuous
 62
     7
370
    13
100
AcDbCircle
 10
-65.54171123482229
 20
-19.00854971960507
 30
0.0
 40
2.000000009880409
100
AcDbArc
 50
270.0
 51
0.0000152587890461
  0
ARC
  5
304
330
1F
100
AcDbEntity
  8
0
  6
Continuous
 62
     7
370
    13
100
AcDbCircle
 10
-62.34167101004277
 20
-10.1085600178485
 30
0.0
 40
4.000000019760819
100
AcDbArc
 50
293.5781879425049
 51
9.206901550292928
  0
ARC
  5
305
330
1F
100
AcDbEntity
  8
0
  6
Continuous
 62
     7
370
    13
100
AcDbCircle
 10
-57.40608788309328
 20
-9.308562333644659
 30
0.0
 40
1.000000004940205
100
AcDbArc
 50
89.99999999999999
 51
189.2068786621093
  0
ARC
  5
306
330
1F
100
AcDbEntity
  8
0
  6
Continuous
 62
     7
370
    13
100
AcDbCircle
 10
-70.54167820310977
 20
-19.00854971960507
 30
0.0
 40
2.000000009880409
100
AcDbArc
 50
180.0
 51
270.0
  0
ARC
  5
307
330
1F
100
AcDbEntity
  8
0
  6
Continuous
 62
     7
370
    13
100
AcDbCircle
 10
-70.54167820310977
 20
120.191418491595
 30
0.0
 40
2.000000009880409
100
AcDbArc
 50
89.99999999999999
 51
180.0
  0
ARC
  5
308
330
1F
100
AcDbEntity
  8
0
  6
Continuous
 62
     7
370
    13
100
AcDbCircle
 10
-62.34167101004277
 20
124.6914085582393
 30
0.0
 40
1.800000008892368
100
AcDbArc
 50
321.865306854248
 51
218.1346740722656
  0
ARC
  5
309
330
1F
100
AcDbEntity
  8
0
  6
Continuous
 62
     7
370
    13
100
AcDbCircle
 10
-62.34167101004277
 20
124.6914085582393
 30
0.0
 40
4.000000019760819
100
AcDbArc
 50
321.3178215026855
 51
333.8961448669434
  0
ARC
  5
30A
330
1F
100
AcDbEntity
  8
0
  6
Continuous
 62
     7
370
    13
100
AcDbCircle
 10
-57.85162802418927
 20
122.4914211126743
 30
0.0
 40
1.000000004940205
100
AcDbArc
 50
89.99999999999999
 51
153.8961334228516
  0
ARC
  5
30B
330
1F
100
AcDbEntity
  8
0
  6
Continuous
 62
     7
370
    13
100
AcDbCircle
 10
-60.06062227922666
 20
122.9006370880961
 30
0.0
 40
1.100000005434225
100
AcDbArc
 50
141.8653411865235
 51
220.1462707519531
  0
ARC
  5
30C
330
1F
100
AcDbEntity
  8
0
  6
Continuous
 62
     7
370
    13
100
AcDbCircle
 10
-64.62271974085888
 20
122.9006370880961
 30
0.0
 40
1.100000005434225
100
AcDbArc
 50
319.8537559509277
 51
38.13467407226564
  0
ARC
  5
30D
330
1F
100
AcDbEntity
  8
0
  6
Continuous
 62
     7
370
    13
100
AcDbCircle
 10
-17.84164826931374
 20
128.1913953336334
 30
0.0
 40
3.699999728310218
100
AcDbArc
 50
270.0
 51
0.0000152587890461
  0
ARC
  5
30E
330
1F
100
AcDbEntity
  8
0
  6
Continuous
 62
     7
370
    13
100
AcDbCircle
 10
-14.34161200595554
 20
139.6780466887139
 30
0.0
 40
1.500000007410307
100
AcDbArc
 50
277.6622667312622
 51
0.0
  0
ARC
  5
30F
330
1F
100
AcDbEntity
  8
0
  6
Continuous
 62
     7
370
    13
100
AcDbCircle
 10
-11.84167800977593
 20
143.6914216040313
 30
0.0
 40
1.000000004940205
100
AcDbArc
 50
89.99999999999999
 51
180.0
  0
ARC
  5
310
330
1F
100
AcDbEntity
  8
0
  6
Continuous
 62
     7
370
    13
100
AcDbCircle
 10
11.65837459062459
 20
142.6914678007452
 30
0.0
 40
1.800000008892368
100
AcDbArc
 50
226.1123657226562
 51
133.8876647949219
  0
ARC
  5
311
330
1F
100
AcDbEntity
  8
0
  6
Continuous
 62
     7
370
    13
100
AcDbCircle
 10
8.158387815230526
 20
137.6914018565294
 30
0.0
 40
3.000000014820614
100
AcDbArc
 50
89.99999999999999
 51
180.0
  0
ARC
  5
312
330
1F
100
AcDbEntity
  8
0
  6
Continuous
 62
     7
370
    13
100
AcDbCircle
 10
13.70148518988572
 20
126.69141514074
 30
0.0
 40
3.000000014820614
100
AcDbArc
 50
19.47116088867187
 51
90.00001525878903
  0
ARC
  5
313
330
1F
100
AcDbEntity
  8
0
  6
Continuous
 62
     7
370
    13
100
AcDbCircle
 10
19.35835539408436
 20
128.6914217232406
 30
0.0
 40
3.000000014820614
100
AcDbArc
 50
199.4712219238281
 51
270.0
  0
ARC
  5
314
330
1F
100
AcDbEntity
  8
0
  6
Continuous
 62
     7
370
    13
100
AcDbCircle
 10
8.158387815230526
 20
133.4990784629044
 30
0.0
 40
1.000000004940205
100
AcDbArc
 50
180.0
 51
264.4546813964843
  0
ARC
  5
315
330
1F
100
AcDbEntity
  8
0
  6
Continuous
 62
     7
370
    13
100
AcDbCircle
 10
8.158387815230526
 20
137.6914018565294
 30
0.0
 40
1.000000004940205
100
AcDbArc
 50
89.99999999999999
 51
180.0
  0
ARC
  5
316
330
1F
100
AcDbEntity
  8
0
  6
Continuous
 62
     7
370
    13
100
AcDbCircle
 10
14.65833497641142
 20
139.6914084390301
 30
0.0
 40
1.000000004940205
100
AcDbArc
 50
270.0
 51
0.0000152587890461
  0
ARC
  5
317
330
1F
100
AcDbEntity
  8
0
  6
Continuous
 62
     7
370
    13
100
AcDbCircle
 10
17.65829536219826
 20
142.6914678007452
 30
0.0
 40
2.000000009880409
100
AcDbArc
 50
89.99999999999999
 51
180.0
  0
ARC
  5
318
330
1F
100
AcDbEntity
  8
0
  6
Continuous
 62
     7
370
    13
100
AcDbCircle
 10
20.85833558697777
 20
143.6914216040313
 30
0.0
 40
1.000000004940205
100
AcDbArc
 50
0.0
 51
90.0
  0
ARC
  5
319
330
1F
100
AcDbEntity
  8
0
  6
Continuous
 62
     7
370
    13
100
AcDbCircle
 10
23.35836855908565
 20
138.1913787581725
 30
0.0
 40
1.500000007410307
100
AcDbArc
 50
180.0
 51
270.0
  0
ARC
  5
31A
330
1F
100
AcDbEntity
  8
0
  6
Continuous
 62
     7
370
    13
100
AcDbCircle
 10
-16.34161858845619
 20
141.9413787283702
 30
0.0
 40
1.500000007410307
100
AcDbArc
 50
0.0
 51
90.00001525878905
  0
ARC
  5
31B
330
1F
100
AcDbEntity
  8
0
  6
Continuous
 62
     7
370
    13
100
AcDbCircle
 10
-16.34161858845619
 20
140.9413754371199
 30
0.0
 40
1.500000007410307
100
AcDbArc
 50
270.0
 51
0.0000152587890461
  0
ARC
  5
31C
330
1F
100
AcDbEntity
  8
0
  6
Continuous
 62
     7
370
    13
100
AcDbCircle
 10
-17.84164826931374
 20
128.1913953336334
 30
0.0
 40
1.500000007410307
100
AcDbArc
 50
270.0
 51
0.0000152587890461
  0
ARC
  5
31D
330
1F
100
AcDbEntity
  8
0
  6
Continuous
 62
     7
370
    13
100
AcDbCircle
 10
-57.75908553125919
 20
126.69141514074
 30
0.0
 40
1.000000004940205
100
AcDbArc
 50
203.5781860351562
 51
270.0
  0
ARC
  5
31E
330
1F
100
AcDbEntity
  8
0
  6
Continuous
 62
     7
370
    13
100
AcDbCircle
 10
-62.34167101004277
 20
124.6914085582393
 30
0.0
 40
4.000000019760819
100
AcDbArc
 50
23.57818603515622
 51
170.7931213378906
  0
ARC
  5
31F
330
1F
100
AcDbEntity
  8
0
  6
Continuous
 62
     7
370
    13
100
AcDbCircle
 10
-67.27720464902814
 20
125.4914309864253
 30
0.0
 40
1.000000004940205
100
AcDbArc
 50
270.0
 51
350.793098449707
  0
ARC
  5
320
330
1F
100
AcDbEntity
  8
0
  6
Continuous
 62
     7
370
    13
100
AcDbCircle
 10
-71.84167753293877
 20
128.1913953336334
 30
0.0
 40
0.5000000024701023
100
AcDbArc
 50
270.0000152592547
 51
90.0
  0
ARC
  5
321
330
1F
100
AcDbEntity
  8
0
  6
Continuous
 62
     7
370
    13
100
AcDbCircle
 10
-34.34162834299786
 20
128.1913953336334
 30
0.0
 40
0.5000000024701023
100
AcDbArc
 50
90.00001525878903
 51
270.0
  0
ARC
  5
322
330
1F
100
AcDbEntity
  8
0
  6
Continuous
 62
     7
370
    13
100
AcDbCircle
 10
9.924563767199288
 20
144.4939184304239
 30
0.0
 40
0.7009999599678025
100
AcDbArc
 50
163.6335296630859
 51
313.8876609802247
  0
ARC
  5
323
330
1F
100
AcDbEntity
  8
0
  6
Continuous
 62
     7
370
    13
100
AcDbCircle
 10
9.924563767199288
 20
140.8889181951381
 30
0.0
 40
0.7009999599678025
100
AcDbArc
 50
46.11233520507812
 51
196.3664855957031
  0
ARC
  5
324
330
1F
100
AcDbEntity
  8
0
  6
Continuous
 62
     7
370
    13
100
AcDbCircle
 10
21.65835801516369
 20
129.1913986248837
 30
0.0
 40
0.5000000024701023
100
AcDbArc
 50
0.0
 51
180.0
  0
ARC
  5
325
330
1F
100
AcDbEntity
  8
0
  6
Continuous
 62
     7
370
    13
100
AcDbCircle
 10
20.15837782227027
 20
128.6914217232406
 30
0.0
 40
1.000000004940205
100
AcDbArc
 50
180.0
 51
0.0000152587890461
  0
ARC
  5
326
330
1F
100
AcDbEntity
  8
0
  6
Continuous
 62
     7
370
    13
100
AcDbCircle
 10
16.65834155891207
 20
132.6914348882419
 30
0.0
 40
1.000000004940205
100
AcDbArc
 50
0.0
 51
90.00001525878905
  0
ARC
  5
327
330
1F
100
AcDbEntity
  8
0
  6
Continuous
 62
     7
370
    13
100
AcDbCircle
 10
11.15834820101736
 20
134.1914150811353
 30
0.0
 40
0.5000000024701023
100
AcDbArc
 50
180.0
 51
270.0
  0
ARC
  5
328
330
1F
100
AcDbEntity
  8
0
  6
Continuous
 62
     7
370
    13
100
AcDbCircle
 10
8.658315228909487
 20
135.6913952740288
 30
0.0
 40
1.000000004940205
100
AcDbArc
 50
89.99999999999999
 51
180.0
  0
ARC
  5
329
330
1F
100
AcDbEntity
  8
0
  6
Continuous
 62
     7
370
    13
100
AcDbCircle
 10
18.65834814141272
 20
-22.30858037591679
 30
0.0
 40
1.000000004940205
100
AcDbArc
 50
180.0
 51
270.0
  0
ARC
  5
32A
330
1F
100
AcDbEntity
  8
0
  6
Continuous
 62
     7
370
    13
100
AcDbCircle
 10
19.35835539408436
 20
-19.80859689177305
 30
0.0
 40
0.5000000024701023
100
AcDbArc
 50
180.0
 51
270.0
  0
ARC
  5
32B
330
1F
100
AcDbEntity
  8
0
  6
Continuous
 62
     7
370
    13
100
AcDbCircle
 10
21.65835801516369
 20
-19.80859689177305
 30
0.0
 40
0.5000000024701023
100
AcDbArc
 50
270.0
 51
0.0000152587890461
  0
ARC
  5
32C
330
1F
100
AcDbEntity
  8
0
  6
Continuous
 62
     7
370
    13
100
AcDbCircle
 10
21.65835801516369
 20
133.191411789885
 30
0.0
 40
0.5000000024701023
100
AcDbArc
 50
0.0
 51
90.0
  0
ARC
  5
32D
330
1F
100
AcDbEntity
  8
0
  6
Continuous
 62
     7
370
    13
100
AcDbCircle
 10
19.35835539408436
 20
133.191411789885
 30
0.0
 40
0.5000000024701023
100
AcDbArc
 50
89.99999999999999
 51
180.0
  0
ARC
  5
32E
330
1F
100
AcDbEntity
  8
0
  6
Continuous
 62
     7
370
    13
100
AcDbCircle
 10
18.25833692731976
 20
131.2914203828987
 30
0.0
 40
0.5999999546360328
100
AcDbArc
 50
180.0
 51
0.0000152587890461
  0
ARC
  5
32F
330
1F
100
AcDbEntity
  8
0
  6
Continuous
 62
     7
370
    13
100
AcDbCircle
 10
9.758383183638216
 20
134.2914302566496
 30
0.0
 40
0.9000000044461842
100
AcDbArc
 50
0.0
 51
180.0
  0
ARC
  5
330
330
1F
100
AcDbEntity
  8
0
  6
Continuous
 62
     7
370
    13
100
AcDbCircle
 10
8.258402990744798
 20
133.2914269653993
 30
0.0
 40
0.5999999546360328
100
AcDbArc
 50
180.0
 51
0.0000152587890461
  0
ARC
  5
331
330
1F
100
AcDbEntity
  8
0
  6
Continuous
 62
     7
370
    13
100
AcDbCircle
 10
18.25833692731976
 20
-17.90858074080461
 30
0.0
 40
0.5999999546360328
100
AcDbArc
 50
0.0
 51
180.0
  0
ARC
  5
332
330
1F
100
AcDbEntity
  8
0
  6
Continuous
 62
     7
370
    13
100
AcDbCircle
 10
19.83967533324903
 20
119.2315994272212
 30
0.0
 40
0.5000000024701023
100
AcDbArc
 50
180.0
 51
270.0
  0
ARC
  5
333
330
1F
100
AcDbEntity
  8
0
  6
Continuous
 62
     7
370
    13
100
AcDbCircle
 10
21.639602076757
 20
119.7315763288643
 30
0.0
 40
1.000000004940205
100
AcDbArc
 50
270.0
 51
0.0
  0
ARC
  5
334
330
1F
100
AcDbEntity
  8
0
  6
Continuous
 62
     7
370
    13
100
AcDbCircle
 10
22.33960932942864
 20
120.4315340935718
 30
0.0
 40
0.3000000014820614
100
AcDbArc
 50
0.0
 51
90.00056457519531
  0
CIRCLE
  5
335
330
1F
100
AcDbEntity
  8
0
  6
Continuous
 62
     7
370
    13
100
AcDbCircle
 10
-0.3602723788935691
 20
100.231858565232
 30
0.0
 40
4.500000118887101
  0
CIRCLE
  5
336
330
1F
100
AcDbEntity
  8
0
  6
Continuous
 62
     7
370
    13
100
AcDbCircle
 10
-0.3602723788935691
 20
17.23180808729376
 30
0.0
 40
4.500000118887101
  0
CIRCLE
  5
337
330
1F
100
AcDbEntity
  8
0
  6
Continuous
 62
     7
370
    13
100
AcDbCircle
 10
4.797313755159848
 20
58.72098309012654
 30
0.0
 40
9.999999662777327
  0
ARC
  5
338
330
1F
100
AcDbEntity
  8
0
  6
Continuous
 62
     7
370
    13
100
AcDbCircle
 10
186.6710256226797
 20
125.127199570401
 30
0.0
 40
0.5000000024701023
100
AcDbArc
 50
180.0
 51
270.0
  0
ARC
  5
339
330
1F
100
AcDbEntity
  8
0
  6
Continuous
 62
     7
370
    13
100
AcDbCircle
 10
187.1710025243228
 20
-19.07278509705066
 30
0.0
 40
1.000000004940205
100
AcDbArc
 50
180.0
 51
270.0
  0
ARC
  5
33A
330
1F
100
AcDbEntity
  8
0
  6
Continuous
 62
     7
370
    13
100
AcDbCircle
 10
217.6710286755115
 20
-9.572803318136721
 30
0.0
 40
0.5000000024701023
100
AcDbArc
 50
0.0
 51
90.0
  0
ARC
  5
33B
330
1F
100
AcDbEntity
  8
0
  6
Continuous
 62
     7
370
    13
100
AcDbCircle
 10
216.1709989946539
 20
-12.07278680228046
 30
0.0
 40
0.5000000024701023
100
AcDbArc
 50
90.0
 51
180.0
  0
ARC
  5
33C
330
1F
100
AcDbEntity
  8
0
  6
Continuous
 62
     7
370
    13
100
AcDbCircle
 10
217.6710286755115
 20
-11.07278351103014
 30
0.0
 40
0.5000000024701023
100
AcDbArc
 50
270.0
 51
0.0
  0
ARC
  5
33D
330
1F
100
AcDbEntity
  8
0
  6
Continuous
 62
     7
370
    13
100
AcDbCircle
 10
221.6709923525486
 20
-19.57278674267582
 30
0.0
 40
0.5000000024701023
100
AcDbArc
 50
180.0
 51
270.0
  0
ARC
  5
33E
330
1F
100
AcDbEntity
  8
0
  6
Continuous
 62
     7
370
    13
100
AcDbCircle
 10
224.6710022262996
 20
-19.57278674267582
 30
0.0
 40
0.5000000024701023
100
AcDbArc
 50
270.0
 51
0.0
  0
ARC
  5
33F
330
1F
100
AcDbEntity
  8
0
  6
Continuous
 62
     7
370
    13
100
AcDbCircle
 10
220.1710121596552
 20
-7.072770346028847
 30
0.0
 40
1.000000004940205
100
AcDbArc
 50
0.0
 51
90.0
  0
ARC
  5
340
330
1F
100
AcDbEntity
  8
0
  6
Continuous
 62
     7
370
    13
100
AcDbCircle
 10
222.670995643799
 20
123.427189026479
 30
0.0
 40
1.000000004940205
100
AcDbArc
 50
270.0
 51
0.0
  0
ARC
  5
341
330
1F
100
AcDbEntity
  8
0
  6
Continuous
 62
     7
370
    13
100
AcDbCircle
 10
186.6710256226797
 20
121.9272088335856
 30
0.0
 40
0.5000000024701023
100
AcDbArc
 50
90.0
 51
180.0
  0
ARC
  5
342
330
1F
100
AcDbEntity
  8
0
  6
Continuous
 62
     7
370
    13
100
AcDbCircle
 10
193.1710222718248
 20
-7.072770346028847
 30
0.0
 40
1.000000004940205
100
AcDbArc
 50
90.0
 51
180.0
  0
ARC
  5
343
330
1F
100
AcDbEntity
  8
0
  6
Continuous
 62
     7
370
    13
100
AcDbCircle
 10
191.6709925909672
 20
-19.57278674267582
 30
0.0
 40
0.5000000024701023
100
AcDbArc
 50
270.0
 51
0.0
  0
ARC
  5
344
330
1F
100
AcDbEntity
  8
0
  6
Continuous
 62
     7
370
    13
100
AcDbCircle
 10
266.6709919949208
 20
132.9001256329939
 30
0.0
 40
0.5000000024701023
100
AcDbArc
 50
180.0
 51
266.8201904296876
  0
ARC
  5
345
330
1F
100
AcDbEntity
  8
0
  6
Continuous
 62
     7
370
    13
100
AcDbCircle
 10
266.6709919949208
 20
136.427132836805
 30
0.0
 40
0.5000000024701023
100
AcDbArc
 50
90.0
 51
180.0
  0
ARC
  5
346
330
1F
100
AcDbEntity
  8
0
  6
Continuous
 62
     7
370
    13
100
AcDbCircle
 10
197.3710162998905
 20
-20.77279564097262
 30
0.0
 40
0.3000000014820614
100
AcDbArc
 50
270.0
 51
0.0
  0
ARC
  5
347
330
1F
100
AcDbEntity
  8
0
  6
Continuous
 62
     7
370
    13
100
AcDbCircle
 10
197.1709859488619
 20
-18.57278345142549
 30
0.0
 40
0.5000000024701023
100
AcDbArc
 50
0.0
 51
180.0
  0
ARC
  5
348
330
1F
100
AcDbEntity
  8
0
  6
Continuous
 62
     7
370
    13
100
AcDbCircle
 10
196.3710130086401
 20
-19.47277156716154
 30
0.0
 40
0.3000000014820614
100
AcDbArc
 50
270.0
 51
0.0
  0
ARC
  5
349
330
1F
100
AcDbEntity
  8
0
  6
Continuous
 62
     7
370
    13
100
AcDbCircle
 10
195.4710248929041
 20
-19.47277156716154
 30
0.0
 40
0.3000000014820614
100
AcDbArc
 50
180.0
 51
270.0
  0
ARC
  5
34A
330
1F
100
AcDbEntity
  8
0
  6
Continuous
 62
     7
370
    13
100
AcDbCircle
 10
216.1709989946539
 20
-13.57279173915595
 30
0.0
 40
0.5000000024701023
100
AcDbArc
 50
180.0
 51
0.0
  0
ARC
  5
34B
330
1F
100
AcDbEntity
  8
0
  6
Continuous
 62
     7
370
    13
100
AcDbCircle
 10
216.9710214228398
 20
-12.87278448648431
 30
0.0
 40
0.3000000014820614
100
AcDbArc
 50
90.0
 51
180.0
  0
ARC
  5
34C
330
1F
100
AcDbEntity
  8
0
  6
Continuous
 62
     7
370
    13
100
AcDbCircle
 10
217.8710095385759
 20
-12.87278448648431
 30
0.0
 40
0.3000000014820614
100
AcDbArc
 50
0.0
 51
90.0
  0
ARC
  5
34D
330
1F
100
AcDbEntity
  8
0
  6
Continuous
 62
     7
370
    13
100
AcDbCircle
 10
217.8710095385759
 20
-19.47277156716154
 30
0.0
 40
0.3000000014820614
100
AcDbArc
 50
270.0
 51
0.0
  0
ARC
  5
34E
330
1F
100
AcDbEntity
  8
0
  6
Continuous
 62
     7
370
    13
100
AcDbCircle
 10
216.9710214228398
 20
-19.47277156716154
 30
0.0
 40
0.3000000014820614
100
AcDbArc
 50
180.0
 51
270.0
  0
ARC
  5
34F
330
1F
100
AcDbEntity
  8
0
  6
Continuous
 62
     7
370
    13
100
AcDbCircle
 10
216.1709989946539
 20
-18.57278345142549
 30
0.0
 40
0.5000000024701023
100
AcDbArc
 50
0.0
 51
180.0
  0
ARC
  5
350
330
1F
100
AcDbEntity
  8
0
  6
Continuous
 62
     7
370
    13
100
AcDbCircle
 10
215.9710181315895
 20
-20.77279564097262
 30
0.0
 40
0.3000000014820614
100
AcDbArc
 50
180.0
 51
270.0
  0
ARC
  5
351
330
1F
100
AcDbEntity
  8
0
  6
Continuous
 62
     7
370
    13
100
AcDbCircle
 10
228.6710153913009
 20
-22.57277187244472
 30
0.0
 40
0.5000000024701023
100
AcDbArc
 50
270.0
 51
0.0
  0
ARC
  5
352
330
1F
100
AcDbEntity
  8
0
  6
Continuous
 62
     7
370
    13
100
AcDbCircle
 10
228.6710153913009
 20
-19.07278509705066
 30
0.0
 40
0.5000000024701023
100
AcDbArc
 50
0.0
 51
90.0
  0
ARC
  5
353
330
1F
100
AcDbEntity
  8
0
  6
Continuous
 62
     7
370
    13
100
AcDbCircle
 10
228.6710153913009
 20
-14.07279338478111
 30
0.0
 40
0.5000000024701023
100
AcDbArc
 50
270.0
 51
0.0
  0
ARC
  5
354
330
1F
100
AcDbEntity
  8
0
  6
Continuous
 62
     7
370
    13
100
AcDbCircle
 10
228.6710153913009
 20
-12.07278680228046
 30
0.0
 40
0.5000000024701023
100
AcDbArc
 50
0.0
 51
90.0
  0
ARC
  5
355
330
1F
100
AcDbEntity
  8
0
  6
Continuous
 62
     7
370
    13
100
AcDbCircle
 10
226.1710319071572
 20
-12.57278844790562
 30
0.0
 40
1.000000004940205
100
AcDbArc
 50
90.0
 51
180.0
  0
ARC
  5
356
330
1F
100
AcDbEntity
  8
0
  6
Continuous
 62
     7
370
    13
100
AcDbCircle
 10
198.2542774837493
 20
-6.615056165755959
 30
0.0
 40
0.5422878544470962
100
AcDbArc
 50
90.0
 51
226.3159790039062
  0
ARC
  5
357
330
1F
100
AcDbEntity
  8
0
  6
Continuous
 62
     7
370
    13
100
AcDbCircle
 10
196.6710090472188
 20
-8.272779244325648
 30
0.0
 40
1.750030503670132
100
AcDbArc
 50
37.58012771606446
 51
46.31595993041992
  0
ARC
  5
358
330
1F
100
AcDbEntity
  8
0
  6
Continuous
 62
     7
370
    13
100
AcDbCircle
 10
198.2956989097293
 20
-7.022589550397242
 30
0.0
 40
0.300000726403411
100
AcDbArc
 50
217.5670013427734
 51
274.7059020996094
  0
ARC
  5
359
330
1F
100
AcDbEntity
  8
0
  6
Continuous
 62
     7
370
    13
100
AcDbCircle
 10
198.3614189260988
 20
-7.819865396573732
 30
0.0
 40
0.5000249880926191
100
AcDbArc
 50
295.2897033691407
 51
94.71416473388672
  0
ARC
  5
35A
330
1F
100
AcDbEntity
  8
0
  6
Continuous
 62
     7
370
    13
100
AcDbCircle
 10
198.7031333184423
 20
-8.54318148035236
 30
0.0
 40
0.2999255037313659
100
AcDbArc
 50
115.283576965332
 51
172.4336853027344
  0
ARC
  5
35B
330
1F
100
AcDbEntity
  8
0
  6
Continuous
 62
     7
370
    13
100
AcDbCircle
 10
196.6710090472188
 20
-8.272779244325648
 30
0.0
 40
1.75009062381406
100
AcDbArc
 50
337.5791931152344
 51
352.4182434082031
  0
ARC
  5
35C
330
1F
100
AcDbEntity
  8
0
  6
Continuous
 62
     7
370
    13
100
AcDbCircle
 10
198.566101145756
 20
-9.054689077638614
 30
0.0
 40
0.2999731310640357
100
AcDbArc
 50
157.5794219970703
 51
214.7062072753906
  0
ARC
  5
35D
330
1F
100
AcDbEntity
  8
0
  6
Continuous
 62
     7
370
    13
100
AcDbCircle
 10
197.9085050783469
 20
-9.510151555543416
 30
0.0
 40
0.5001190828837991
100
AcDbArc
 50
235.286361694336
 51
34.71050262451171
  0
ARC
  5
35E
330
1F
100
AcDbEntity
  8
0
  6
Continuous
 62
     7
370
    13
100
AcDbCircle
 10
197.4529188805318
 20
-10.16787134286278
 30
0.0
 40
0.2999665826078441
100
AcDbArc
 50
55.29380035400392
 51
112.4139251708984
  0
ARC
  5
35F
330
1F
100
AcDbEntity
  8
0
  6
Continuous
 62
     7
370
    13
100
AcDbCircle
 10
196.6710090472188
 20
-8.272779244325648
 30
0.0
 40
1.749971350088003
100
AcDbArc
 50
247.5807952880859
 51
292.4220275878906
  0
ARC
  5
360
330
1F
100
AcDbEntity
  8
0
  6
Continuous
 62
     7
370
    13
100
AcDbCircle
 10
195.8891981898341
 20
-10.16787134286278
 30
0.0
 40
0.3000518575226039
100
AcDbArc
 50
67.58874511718751
 51
124.723030090332
  0
ARC
  5
361
330
1F
100
AcDbEntity
  8
0
  6
Continuous
 62
     7
370
    13
100
AcDbCircle
 10
195.433611992019
 20
-9.510151555543416
 30
0.0
 40
0.4999703773509481
100
AcDbArc
 50
145.2894897460938
 51
304.7035827636719
  0
ARC
  5
362
330
1F
100
AcDbEntity
  8
0
  6
Continuous
 62
     7
370
    13
100
AcDbCircle
 10
194.77601592461
 20
-9.054689077638614
 30
0.0
 40
0.2999791479112375
100
AcDbArc
 50
325.2954406738282
 51
22.41943168640135
  0
ARC
  5
363
330
1F
100
AcDbEntity
  8
0
  6
Continuous
 62
     7
370
    13
100
AcDbCircle
 10
196.6710090472188
 20
-8.272779244325648
 30
0.0
 40
1.749994160946471
100
AcDbArc
 50
187.5817718505859
 51
202.4221649169922
  0
ARC
  5
364
330
1F
100
AcDbEntity
  8
0
  6
Continuous
 62
     7
370
    13
100
AcDbCircle
 10
194.6388847759954
 20
-8.54318148035236
 30
0.0
 40
0.3000211691854702
100
AcDbArc
 50
7.566362380981446
 51
64.69800567626953
  0
ARC
  5
365
330
1F
100
AcDbEntity
  8
0
  6
Continuous
 62
     7
370
    13
100
AcDbCircle
 10
194.9806981442671
 20
-7.819865396573732
 30
0.0
 40
0.4999900952116576
100
AcDbArc
 50
85.29625701904297
 51
244.7102966308594
  0
ARC
  5
366
330
1F
100
AcDbEntity
  8
0
  6
Continuous
 62
     7
370
    13
100
AcDbCircle
 10
195.0464181606367
 20
-7.022589550397242
 30
0.0
 40
0.3000134125270293
100
AcDbArc
 50
265.2796020507812
 51
322.4223327636718
  0
ARC
  5
367
330
1F
100
AcDbEntity
  8
0
  6
Continuous
 62
     7
370
    13
100
AcDbCircle
 10
196.6710090472188
 20
-8.272779244325648
 30
0.0
 40
1.749906590447438
100
AcDbArc
 50
133.6866302490235
 51
142.4199066162109
  0
ARC
  5
368
330
1F
100
AcDbEntity
  8
0
  6
Continuous
 62
     7
370
    13
100
AcDbCircle
 10
195.0876911227242
 20
-6.615155141684227
 30
0.0
 40
0.5423815142854664
100
AcDbArc
 50
313.6866455078124
 51
90.0
  0
ARC
  5
369
330
1F
100
AcDbEntity
  8
0
  6
Continuous
 62
     7
370
    13
100
AcDbCircle
 10
281.3709958371328
 20
127.2270728645235
 30
0.0
 40
0.3000000014820614
100
AcDbArc
 50
269.9994201660156
 51
0.0
  0
ARC
  5
36A
330
1F
100
AcDbEntity
  8
0
  6
Continuous
 62
     7
370
    13
100
AcDbCircle
 10
281.1710149740684
 20
129.4271592860168
 30
0.0
 40
0.5000000024701023
100
AcDbArc
 50
0.0
 51
180.0
  0
ARC
  5
36B
330
1F
100
AcDbEntity
  8
0
  6
Continuous
 62
     7
370
    13
100
AcDbCircle
 10
279.671034781175
 20
128.9271328964096
 30
0.0
 40
1.000000004940205
100
AcDbArc
 50
180.000015258789
 51
0.0
  0
ARC
  5
36C
330
1F
100
AcDbEntity
  8
0
  6
Continuous
 62
     7
370
    13
100
AcDbCircle
 10
279.671034781175
 20
128.9271328964096
 30
0.0
 40
4.000000019760819
100
AcDbArc
 50
195.7675018310547
 51
246.4217834472656
  0
ARC
  5
36D
330
1F
100
AcDbEntity
  8
0
  6
Continuous
 62
     7
370
    13
100
AcDbCircle
 10
277.8710090617387
 20
124.8028059655044
 30
0.0
 40
0.5000000024701023
100
AcDbArc
 50
0.0
 51
66.42178344726561
  0
ARC
  5
36E
330
1F
100
AcDbEntity
  8
0
  6
Continuous
 62
     7
370
    13
100
AcDbCircle
 10
278.1710051003174
 20
129.9271361876599
 30
0.0
 40
0.5000000024701023
100
AcDbArc
 50
0.0
 51
90.00001525878905
  0
ARC
  5
36F
330
1F
100
AcDbEntity
  8
0
  6
Continuous
 62
     7
370
    13
100
AcDbCircle
 10
277.4709978476458
 20
130.9271394789102
 30
0.0
 40
0.5000000024701023
100
AcDbArc
 50
180.000015258789
 51
270.0
  0
ARC
  5
370
330
1F
100
AcDbEntity
  8
0
  6
Continuous
 62
     7
370
    13
100
AcDbCircle
 10
277.4709978476458
 20
130.9271394789102
 30
0.0
 40
3.499999920634536
100
AcDbArc
 50
214.288330078125
 51
241.8823699951172
  0
ARC
  5
371
330
1F
100
AcDbEntity
  8
0
  6
Continuous
 62
     7
370
    13
100
AcDbCircle
 10
264.6709854124201
 20
138.4272383952339
 30
0.0
 40
1.500000007410307
100
AcDbArc
 50
90.0
 51
180.0
  0
ARC
  5
372
330
1F
100
AcDbEntity
  8
0
  6
Continuous
 62
     7
370
    13
100
AcDbCircle
 10
187.1710025243228
 20
163.4271722125995
 30
0.0
 40
1.000000004940205
100
AcDbArc
 50
90.0
 51
180.0
  0
ARC
  5
373
330
1F
100
AcDbEntity
  8
0
  6
Continuous
 62
     7
370
    13
100
AcDbCircle
 10
198.1709892401122
 20
163.9270006503502
 30
0.0
 40
0.5000000024701023
100
AcDbArc
 50
90.00015258789062
 51
180.0
  0
ARC
  5
374
330
1F
100
AcDbEntity
  8
0
  6
Continuous
 62
     7
370
    13
100
AcDbCircle
 10
279.671034781175
 20
163.4271722125995
 30
0.0
 40
1.000000004940205
100
AcDbArc
 50
0.0
 51
90.00187683105467
  0
ARC
  5
375
330
1F
100
AcDbEntity
  8
0
  6
Continuous
 62
     7
370
    13
100
AcDbCircle
 10
272.1710348407796
 20
163.926901674422
 30
0.0
 40
0.5000000024701023
100
AcDbArc
 50
90.00181579589842
 51
180.0
  0
ARC
  5
376
330
1F
100
AcDbEntity
  8
0
  6
Continuous
 62
     7
370
    13
100
AcDbCircle
 10
279.671034781175
 20
140.9272218793776
 30
0.0
 40
1.000000004940205
100
AcDbArc
 50
270.0
 51
0.0
  0
ARC
  5
377
330
1F
100
AcDbEntity
  8
0
  6
Continuous
 62
     7
370
    13
100
AcDbCircle
 10
264.171008510777
 20
130.535145315007
 30
0.0
 40
1.000000004940205
100
AcDbArc
 50
180.0
 51
266.8201904296876
  0
ARC
  5
378
330
1F
100
AcDbEntity
  8
0
  6
Continuous
 62
     7
370
    13
100
AcDbCircle
 10
196.6710090472188
 20
158.9270336820628
 30
0.0
 40
1.749999960317268
100
AcDbArc
 50
217.5798950195312
 51
229.8159027099609
  0
ARC
  5
379
330
1F
100
AcDbEntity
  8
0
  6
Continuous
 62
     7
370
    13
100
AcDbCircle
 10
196.6710090472188
 20
158.9270336820628
 30
0.0
 40
3.349999968221596
100
AcDbArc
 50
112.9302825927734
 51
216.6564178466797
  0
ARC
  5
37A
330
1F
100
AcDbEntity
  8
0
  6
Continuous
 62
     7
370
    13
100
AcDbCircle
 10
195.1710288543254
 20
162.4728463122447
 30
0.0
 40
0.5000000024701023
100
AcDbArc
 50
292.9302673339844
 51
0.0
  0
ARC
  5
37B
330
1F
100
AcDbEntity
  8
0
  6
Continuous
 62
     7
370
    13
100
AcDbCircle
 10
198.3613694381347
 20
158.4740703463467
 30
0.0
 40
0.5000000024701023
100
AcDbArc
 50
265.2865600585937
 51
64.71346282958982
  0
ARC
  5
37C
330
1F
100
AcDbEntity
  8
0
  6
Continuous
 62
     7
370
    13
100
AcDbCircle
 10
198.0427164370776
 20
157.3028881871578
 30
0.0
 40
0.3758803221755045
100
AcDbArc
 50
130.1840972900391
 51
270.0
  0
ARC
  5
37D
330
1F
100
AcDbEntity
  8
0
  6
Continuous
 62
     7
370
    13
100
AcDbCircle
 10
195.29930165736
 20
157.3028881871578
 30
0.0
 40
0.3758803221755045
100
AcDbArc
 50
270.0
 51
49.81591415405271
  0
ARC
  5
37E
330
1F
100
AcDbEntity
  8
0
  6
Continuous
 62
     7
370
    13
100
AcDbCircle
 10
194.9806486563029
 20
158.4740703463467
 30
0.0
 40
0.5000000024701023
100
AcDbArc
 50
115.2865676879883
 51
274.7134704589844
  0
ARC
  5
37F
330
1F
100
AcDbEntity
  8
0
  6
Continuous
 62
     7
370
    13
100
AcDbCircle
 10
196.6710090472188
 20
158.9270336820628
 30
0.0
 40
1.749999960317268
100
AcDbArc
 50
310.1841125488281
 51
322.4201049804688
  0
ARC
  5
380
330
1F
100
AcDbEntity
  8
0
  6
Continuous
 62
     7
370
    13
100
AcDbCircle
 10
196.6710090472188
 20
158.9270336820628
 30
0.0
 40
1.749999960317268
100
AcDbArc
 50
157.5799102783203
 51
172.4201049804688
  0
ARC
  5
381
330
1F
100
AcDbEntity
  8
0
  6
Continuous
 62
     7
370
    13
100
AcDbCircle
 10
198.2956494217651
 20
157.6767697561882
 30
0.0
 40
0.3000000014820614
100
AcDbArc
 50
85.2865524291992
 51
142.4201049804688
  0
ARC
  5
382
330
1F
100
AcDbEntity
  8
0
  6
Continuous
 62
     7
370
    13
100
AcDbCircle
 10
198.7030838304781
 20
159.1974359180895
 30
0.0
 40
0.3000000014820614
100
AcDbArc
 50
187.5799102783203
 51
244.7134552001953
  0
ARC
  5
383
330
1F
100
AcDbEntity
  8
0
  6
Continuous
 62
     7
370
    13
100
AcDbCircle
 10
195.0463686726725
 20
157.6767697561882
 30
0.0
 40
0.3000000014820614
100
AcDbArc
 50
37.57991409301758
 51
94.71346282958983
  0
ARC
  5
384
330
1F
100
AcDbEntity
  8
0
  6
Continuous
 62
     7
370
    13
100
AcDbCircle
 10
194.6389342639595
 20
159.1974359180895
 30
0.0
 40
0.3000000014820614
100
AcDbArc
 50
295.2865600585938
 51
352.4201049804688
  0
ARC
  5
385
330
1F
100
AcDbEntity
  8
0
  6
Continuous
 62
     7
370
    13
100
AcDbCircle
 10
197.9084555903828
 20
160.1644802252267
 30
0.0
 40
0.5000000024701023
100
AcDbArc
 50
325.2865600585938
 51
124.7134475708008
  0
ARC
  5
386
330
1F
100
AcDbEntity
  8
0
  6
Continuous
 62
     7
370
    13
100
AcDbCircle
 10
195.4335625040549
 20
160.1644802252267
 30
0.0
 40
0.5000000024701023
100
AcDbArc
 50
55.28656768798829
 51
214.7134399414062
  0
ARC
  5
387
330
1F
100
AcDbEntity
  8
0
  6
Continuous
 62
     7
370
    13
100
AcDbCircle
 10
196.6710090472188
 20
158.9270336820628
 30
0.0
 40
1.749999960317268
100
AcDbArc
 50
67.57991027832031
 51
112.4201049804688
  0
ARC
  5
388
330
1F
100
AcDbEntity
  8
0
  6
Continuous
 62
     7
370
    13
100
AcDbCircle
 10
196.6710090472188
 20
158.9270336820628
 30
0.0
 40
1.749999960317268
100
AcDbArc
 50
7.579897403717042
 51
22.42010307312011
  0
ARC
  5
389
330
1F
100
AcDbEntity
  8
0
  6
Continuous
 62
     7
370
    13
100
AcDbCircle
 10
198.5660516577918
 20
159.7088940274116
 30
0.0
 40
0.3000000014820614
100
AcDbArc
 50
145.2865600585938
 51
202.4201049804688
  0
ARC
  5
38A
330
1F
100
AcDbEntity
  8
0
  6
Continuous
 62
     7
370
    13
100
AcDbCircle
 10
197.4528693925677
 20
160.8220762926358
 30
0.0
 40
0.3000000014820614
100
AcDbArc
 50
247.5799102783203
 51
304.7134704589844
  0
ARC
  5
38B
330
1F
100
AcDbEntity
  8
0
  6
Continuous
 62
     7
370
    13
100
AcDbCircle
 10
194.7759664366458
 20
159.7088940274116
 30
0.0
 40
0.3000000014820614
100
AcDbArc
 50
337.5799255371094
 51
34.71344757080076
  0
ARC
  5
38C
330
1F
100
AcDbEntity
  8
0
  6
Continuous
 62
     7
370
    13
100
AcDbCircle
 10
195.88914870187
 20
160.8220762926358
 30
0.0
 40
0.3000000014820614
100
AcDbArc
 50
235.2865753173828
 51
292.4201049804688
  0
ARC
  5
38D
330
1F
100
AcDbEntity
  8
0
  6
Continuous
 62
     7
370
    13
100
AcDbCircle
 10
196.6710090472188
 20
158.9270336820628
 30
0.0
 40
3.349999968221596
100
AcDbArc
 50
323.3435974121094
 51
67.0697326660156
  0
ARC
  5
38E
330
1F
100
AcDbEntity
  8
0
  6
Continuous
 62
     7
370
    13
100
AcDbCircle
 10
198.1709892401122
 20
162.4728463122447
 30
0.0
 40
0.5000000024701023
100
AcDbArc
 50
180.0
 51
247.0697326660156
  0
ARC
  5
38F
330
1F
100
AcDbEntity
  8
0
  6
Continuous
 62
     7
370
    13
100
AcDbCircle
 10
195.1710288543254
 20
163.9271986022068
 30
0.0
 40
0.5000000024701023
100
AcDbArc
 50
0.0
 51
90.0
  0
ARC
  5
390
330
1F
100
AcDbEntity
  8
0
  6
Continuous
 62
     7
370
    13
100
AcDbCircle
 10
270.6710051599221
 20
158.9270336820628
 30
0.0
 40
1.749999960317268
100
AcDbArc
 50
217.5798950195312
 51
229.8159027099609
  0
ARC
  5
391
330
1F
100
AcDbEntity
  8
0
  6
Continuous
 62
     7
370
    13
100
AcDbCircle
 10
270.6710051599221
 20
158.9270336820628
 30
0.0
 40
3.349999968221596
100
AcDbArc
 50
112.9302825927734
 51
216.6564178466797
  0
ARC
  5
392
330
1F
100
AcDbEntity
  8
0
  6
Continuous
 62
     7
370
    13
100
AcDbCircle
 10
269.1710249670286
 20
162.4728463122447
 30
0.0
 40
0.5000000024701023
100
AcDbArc
 50
292.9302673339844
 51
0.0
  0
ARC
  5
393
330
1F
100
AcDbEntity
  8
0
  6
Continuous
 62
     7
370
    13
100
AcDbCircle
 10
272.3613655508379
 20
158.4740703463467
 30
0.0
 40
0.5000000024701023
100
AcDbArc
 50
265.2865600585937
 51
64.71346282958982
  0
ARC
  5
394
330
1F
100
AcDbEntity
  8
0
  6
Continuous
 62
     7
370
    13
100
AcDbCircle
 10
272.0427125497808
 20
157.3028881871578
 30
0.0
 40
0.3758803221755045
100
AcDbArc
 50
130.1840972900391
 51
270.0
  0
ARC
  5
395
330
1F
100
AcDbEntity
  8
0
  6
Continuous
 62
     7
370
    13
100
AcDbCircle
 10
269.2992977700633
 20
157.3028881871578
 30
0.0
 40
0.3758803221755045
100
AcDbArc
 50
270.0
 51
49.81591415405271
  0
ARC
  5
396
330
1F
100
AcDbEntity
  8
0
  6
Continuous
 62
     7
370
    13
100
AcDbCircle
 10
268.9806447690062
 20
158.4740703463467
 30
0.0
 40
0.5000000024701023
100
AcDbArc
 50
115.2865676879883
 51
274.7134704589844
  0
ARC
  5
397
330
1F
100
AcDbEntity
  8
0
  6
Continuous
 62
     7
370
    13
100
AcDbCircle
 10
270.6710051599221
 20
158.9270336820628
 30
0.0
 40
1.749999960317268
100
AcDbArc
 50
310.1841125488281
 51
322.4201049804688
  0
ARC
  5
398
330
1F
100
AcDbEntity
  8
0
  6
Continuous
 62
     7
370
    13
100
AcDbCircle
 10
270.6710051599221
 20
158.9270336820628
 30
0.0
 40
1.749999960317268
100
AcDbArc
 50
157.5799102783203
 51
172.4201049804688
  0
ARC
  5
399
330
1F
100
AcDbEntity
  8
0
  6
Continuous
 62
     7
370
    13
100
AcDbCircle
 10
272.2956455344683
 20
157.6767697561882
 30
0.0
 40
0.3000000014820614
100
AcDbArc
 50
85.2865524291992
 51
142.4201049804688
  0
ARC
  5
39A
330
1F
100
AcDbEntity
  8
0
  6
Continuous
 62
     7
370
    13
100
AcDbCircle
 10
272.7030799431814
 20
159.1974359180895
 30
0.0
 40
0.3000000014820614
100
AcDbArc
 50
187.5799102783203
 51
244.7134552001953
  0
ARC
  5
39B
330
1F
100
AcDbEntity
  8
0
  6
Continuous
 62
     7
370
    13
100
AcDbCircle
 10
269.0463647853758
 20
157.6767697561882
 30
0.0
 40
0.3000000014820614
100
AcDbArc
 50
37.57991409301758
 51
94.71346282958983
  0
ARC
  5
39C
330
1F
100
AcDbEntity
  8
0
  6
Continuous
 62
     7
370
    13
100
AcDbCircle
 10
268.6389303766628
 20
159.1974359180895
 30
0.0
 40
0.3000000014820614
100
AcDbArc
 50
295.2865600585938
 51
352.4201049804688
  0
ARC
  5
39D
330
1F
100
AcDbEntity
  8
0
  6
Continuous
 62
     7
370
    13
100
AcDbCircle
 10
271.908451703086
 20
160.1644802252267
 30
0.0
 40
0.5000000024701023
100
AcDbArc
 50
325.2865600585938
 51
124.7134475708008
  0
ARC
  5
39E
330
1F
100
AcDbEntity
  8
0
  6
Continuous
 62
     7
370
    13
100
AcDbCircle
 10
269.4335586167581
 20
160.1644802252267
 30
0.0
 40
0.5000000024701023
100
AcDbArc
 50
55.28656768798829
 51
214.7134399414062
  0
ARC
  5
39F
330
1F
100
AcDbEntity
  8
0
  6
Continuous
 62
     7
370
    13
100
AcDbCircle
 10
270.6710051599221
 20
158.9270336820628
 30
0.0
 40
1.749999960317268
100
AcDbArc
 50
67.57991027832031
 51
112.4201049804688
  0
ARC
  5
3A0
330
1F
100
AcDbEntity
  8
0
  6
Continuous
 62
     7
370
    13
100
AcDbCircle
 10
270.6710051599221
 20
158.9270336820628
 30
0.0
 40
1.749999960317268
100
AcDbArc
 50
7.579897403717042
 51
22.42010307312011
  0
ARC
  5
3A1
330
1F
100
AcDbEntity
  8
0
  6
Continuous
 62
     7
370
    13
100
AcDbCircle
 10
272.5660477704951
 20
159.7088940274116
 30
0.0
 40
0.3000000014820614
100
AcDbArc
 50
145.2865600585938
 51
202.4201049804688
  0
ARC
  5
3A2
330
1F
100
AcDbEntity
  8
0
  6
Continuous
 62
     7
370
    13
100
AcDbCircle
 10
271.4528655052709
 20
160.8220762926358
 30
0.0
 40
0.3000000014820614
100
AcDbArc
 50
247.5799102783203
 51
304.7134704589844
  0
ARC
  5
3A3
330
1F
100
AcDbEntity
  8
0
  6
Continuous
 62
     7
370
    13
100
AcDbCircle
 10
268.7759625493491
 20
159.7088940274116
 30
0.0
 40
0.3000000014820614
100
AcDbArc
 50
337.5799255371094
 51
34.71344757080076
  0
ARC
  5
3A4
330
1F
100
AcDbEntity
  8
0
  6
Continuous
 62
     7
370
    13
100
AcDbCircle
 10
269.8891448145732
 20
160.8220762926358
 30
0.0
 40
0.3000000014820614
100
AcDbArc
 50
235.2865753173828
 51
292.4201049804688
  0
ARC
  5
3A5
330
1F
100
AcDbEntity
  8
0
  6
Continuous
 62
     7
370
    13
100
AcDbCircle
 10
270.6710051599221
 20
158.9270336820628
 30
0.0
 40
3.349999968221596
100
AcDbArc
 50
323.3435974121094
 51
67.0697326660156
  0
ARC
  5
3A6
330
1F
100
AcDbEntity
  8
0
  6
Continuous
 62
     7
370
    13
100
AcDbCircle
 10
272.1710348407796
 20
162.4728463122447
 30
0.0
 40
0.5000000024701023
100
AcDbArc
 50
180.0
 51
247.0697326660156
  0
ARC
  5
3A7
330
1F
100
AcDbEntity
  8
0
  6
Continuous
 62
     7
370
    13
100
AcDbCircle
 10
269.1710249670286
 20
163.9271986022068
 30
0.0
 40
0.5000000024701023
100
AcDbArc
 50
0.0
 51
90.00015258789062
  0
ARC
  5
3A8
330
1F
100
AcDbEntity
  8
0
  6
Continuous
 62
     7
370
    13
100
AcDbCircle
 10
196.6710090472188
 20
126.4281391715485
 30
0.0
 40
1.749999960317268
100
AcDbArc
 50
37.57991409301758
 51
49.81591415405273
  0
ARC
  5
3A9
330
1F
100
AcDbEntity
  8
0
  6
Continuous
 62
     7
370
    13
100
AcDbCircle
 10
196.6710090472188
 20
126.4281391715485
 30
0.0
 40
3.349999968221596
100
AcDbArc
 50
340.2506408691406
 51
36.65642166137694
  0
ARC
  5
3AA
330
1F
100
AcDbEntity
  8
0
  6
Continuous
 62
     7
370
    13
100
AcDbCircle
 10
200.2945672690548
 20
125.127199570401
 30
0.0
 40
0.5000000024701023
100
AcDbArc
 50
160.2506408691406
 51
270.0
  0
ARC
  5
3AB
330
1F
100
AcDbEntity
  8
0
  6
Continuous
 62
     7
370
    13
100
AcDbCircle
 10
194.9806486563029
 20
126.8810530193005
 30
0.0
 40
0.5000000024701023
100
AcDbArc
 50
85.2865524291992
 51
244.7134552001953
  0
ARC
  5
3AC
330
1F
100
AcDbEntity
  8
0
  6
Continuous
 62
     7
370
    13
100
AcDbCircle
 10
195.29930165736
 20
128.0522351784894
 30
0.0
 40
0.3758803221755045
100
AcDbArc
 50
310.1841125488281
 51
90.00001525878905
  0
ARC
  5
3AD
330
1F
100
AcDbEntity
  8
0
  6
Continuous
 62
     7
370
    13
100
AcDbCircle
 10
198.0427164370776
 20
128.0522351784894
 30
0.0
 40
0.3758803221755045
100
AcDbArc
 50
90.00001525878905
 51
229.81591796875
  0
ARC
  5
3AE
330
1F
100
AcDbEntity
  8
0
  6
Continuous
 62
     7
370
    13
100
AcDbCircle
 10
198.3613694381347
 20
126.8810530193005
 30
0.0
 40
0.5000000024701023
100
AcDbArc
 50
295.2865600585938
 51
94.71346282958983
  0
ARC
  5
3AF
330
1F
100
AcDbEntity
  8
0
  6
Continuous
 62
     7
370
    13
100
AcDbCircle
 10
196.6710090472188
 20
126.4281391715485
 30
0.0
 40
1.749999960317268
100
AcDbArc
 50
130.1840972900391
 51
142.4201049804688
  0
ARC
  5
3B0
330
1F
100
AcDbEntity
  8
0
  6
Continuous
 62
     7
370
    13
100
AcDbCircle
 10
196.6710090472188
 20
126.4281391715485
 30
0.0
 40
1.749999960317268
100
AcDbArc
 50
337.5799255371094
 51
352.4201049804688
  0
ARC
  5
3B1
330
1F
100
AcDbEntity
  8
0
  6
Continuous
 62
     7
370
    13
100
AcDbCircle
 10
195.0463686726725
 20
127.6784030974231
 30
0.0
 40
0.3000000014820614
100
AcDbArc
 50
265.2865600585937
 51
322.4201049804688
  0
ARC
  5
3B2
330
1F
100
AcDbEntity
  8
0
  6
Continuous
 62
     7
370
    13
100
AcDbCircle
 10
194.6389342639595
 20
126.1577369355218
 30
0.0
 40
0.3000000014820614
100
AcDbArc
 50
7.579897403717042
 51
64.71346282958984
  0
ARC
  5
3B3
330
1F
100
AcDbEntity
  8
0
  6
Continuous
 62
     7
370
    13
100
AcDbCircle
 10
198.2956494217651
 20
127.6784030974231
 30
0.0
 40
0.3000000014820614
100
AcDbArc
 50
217.5798950195312
 51
274.7134704589844
  0
ARC
  5
3B4
330
1F
100
AcDbEntity
  8
0
  6
Continuous
 62
     7
370
    13
100
AcDbCircle
 10
198.7030838304781
 20
126.1577369355218
 30
0.0
 40
0.3000000014820614
100
AcDbArc
 50
115.2865524291992
 51
172.4201049804688
  0
ARC
  5
3B5
330
1F
100
AcDbEntity
  8
0
  6
Continuous
 62
     7
370
    13
100
AcDbCircle
 10
195.4335625040549
 20
125.1907421163487
 30
0.0
 40
0.5000000024701023
100
AcDbArc
 50
145.2865600585938
 51
304.7134399414062
  0
ARC
  5
3B6
330
1F
100
AcDbEntity
  8
0
  6
Continuous
 62
     7
370
    13
100
AcDbCircle
 10
197.9084555903828
 20
125.1907421163487
 30
0.0
 40
0.5000000024701023
100
AcDbArc
 50
235.2865753173828
 51
34.71344757080076
  0
ARC
  5
3B7
330
1F
100
AcDbEntity
  8
0
  6
Continuous
 62
     7
370
    13
100
AcDbCircle
 10
196.6710090472188
 20
126.4281391715485
 30
0.0
 40
1.749999960317268
100
AcDbArc
 50
247.5799102783203
 51
292.4201049804688
  0
ARC
  5
3B8
330
1F
100
AcDbEntity
  8
0
  6
Continuous
 62
     7
370
    13
100
AcDbCircle
 10
196.6710090472188
 20
126.4281391715485
 30
0.0
 40
1.749999960317268
100
AcDbArc
 50
187.5799102783203
 51
202.4201049804688
  0
ARC
  5
3B9
330
1F
100
AcDbEntity
  8
0
  6
Continuous
 62
     7
370
    13
100
AcDbCircle
 10
194.7759664366458
 20
125.6463283141638
 30
0.0
 40
0.3000000014820614
100
AcDbArc
 50
325.2865600585938
 51
22.42010307312009
  0
ARC
  5
3BA
330
1F
100
AcDbEntity
  8
0
  6
Continuous
 62
     7
370
    13
100
AcDbCircle
 10
195.88914870187
 20
124.5330965609755
 30
0.0
 40
0.3000000014820614
100
AcDbArc
 50
67.57991027832031
 51
124.7134628295898
  0
ARC
  5
3BB
330
1F
100
AcDbEntity
  8
0
  6
Continuous
 62
     7
370
    13
100
AcDbCircle
 10
198.5660516577918
 20
125.6463283141638
 30
0.0
 40
0.3000000014820614
100
AcDbArc
 50
157.5799102783203
 51
214.7134399414062
  0
ARC
  5
3BC
330
1F
100
AcDbEntity
  8
0
  6
Continuous
 62
     7
370
    13
100
AcDbCircle
 10
197.4528693925677
 20
124.5330965609755
 30
0.0
 40
0.3000000014820614
100
AcDbArc
 50
55.28656768798829
 51
112.4201049804688
  0
ARC
  5
3BD
330
1F
100
AcDbEntity
  8
0
  6
Continuous
 62
     7
370
    13
100
AcDbCircle
 10
196.6710090472188
 20
126.4281391715485
 30
0.0
 40
3.349999968221596
100
AcDbArc
 50
143.3435821533203
 51
199.7493591308594
  0
ARC
  5
3BE
330
1F
100
AcDbEntity
  8
0
  6
Continuous
 62
     7
370
    13
100
AcDbCircle
 10
193.0474508253828
 20
125.127199570401
 30
0.0
 40
0.5000000024701023
100
AcDbArc
 50
270.0
 51
19.74938201904297
  0
ARC
  5
3BF
330
1F
100
AcDbEntity
  8
0
  6
Continuous
 62
     7
370
    13
100
AcDbCircle
 10
222.9210088386026
 20
125.6772088037833
 30
0.0
 40
0.7500000037051535
100
AcDbArc
 50
0.0
 51
180.0
  0
ARC
  5
3C0
330
1F
100
AcDbEntity
  8
0
  6
Continuous
 62
     7
370
    13
100
AcDbCircle
 10
196.6710090472188
 20
-8.272779244325648
 30
0.0
 40
5.499999930514946
100
AcDbArc
 50
260.4059448242188
 51
347.4866638183594
  0
ARC
  5
3C1
330
1F
100
AcDbEntity
  8
0
  6
Continuous
 62
     7
370
    13
100
AcDbCircle
 10
202.5285034580156
 20
-9.572803318136721
 30
0.0
 40
0.5000000024701023
100
AcDbArc
 50
90.0
 51
167.4866790771484
  0
ARC
  5
3C2
330
1F
100
AcDbEntity
  8
0
  6
Continuous
 62
     7
370
    13
100
AcDbCircle
 10
195.6710057559685
 20
-14.18884266067471
 30
0.0
 40
0.5000000024701023
100
AcDbArc
 50
80.40594482421875
 51
180.000015258789
  0
ARC
  5
3C3
330
1F
100
AcDbEntity
  8
0
  6
Continuous
 62
     7
370
    13
100
AcDbCircle
 10
277.7695092473004
 20
-17.67262212781498
 30
0.0
 40
0.6000060439753696
100
AcDbArc
 50
0.0
 51
180.0
  0
ARC
  5
3C4
330
1F
100
AcDbEntity
  8
0
  6
Continuous
 62
     7
370
    13
100
AcDbCircle
 10
278.1722917873849
 20
-22.07262176292716
 30
0.0
 40
1.000000004940205
100
AcDbArc
 50
180.0000305175782
 51
270.0
  0
ARC
  5
3C5
330
1F
100
AcDbEntity
  8
0
  6
Continuous
 62
     7
370
    13
100
AcDbCircle
 10
278.8538400294347
 20
-19.57261353480135
 30
0.0
 40
0.5000000024701023
100
AcDbArc
 50
180.0000305175782
 51
270.0
  0
ARC
  5
3C6
330
1F
100
AcDbEntity
  8
0
  6
Continuous
 62
     7
370
    13
100
AcDbCircle
 10
281.1773989214416
 20
-19.57261353480135
 30
0.0
 40
0.5000000024701023
100
AcDbArc
 50
270.0
 51
0.0
  0
ARC
  5
3C7
330
1F
100
AcDbEntity
  8
0
  6
Continuous
 62
     7
370
    13
100
AcDbCircle
 10
281.1186072200508
 20
133.4273704028747
 30
0.0
 40
0.5000000024701023
100
AcDbArc
 50
0.0
 51
90.00001525878905
  0
ARC
  5
3C8
330
1F
100
AcDbEntity
  8
0
  6
Continuous
 62
     7
370
    13
100
AcDbCircle
 10
278.8712103048456
 20
133.4273704028747
 30
0.0
 40
0.5000000024701023
100
AcDbArc
 50
90.00003051757808
 51
180.0000305175782
  0
ARC
  5
3C9
330
1F
100
AcDbEntity
  8
0
  6
Continuous
 62
     7
370
    13
100
AcDbCircle
 10
277.7891064810974
 20
131.5273295079242
 30
0.0
 40
0.6000060439753696
100
AcDbArc
 50
180.0000305175782
 51
0.0
  0
ARC
  5
3CA
330
1F
100
AcDbEntity
  8
0
  6
Continuous
 62
     7
370
    13
100
AcDbCircle
 10
276.1520941155177
 20
132.9273440132674
 30
0.0
 40
1.000000004940205
100
AcDbArc
 50
0.0
 51
90.00001525878905
  0
ARC
  5
3CB
330
1F
100
AcDbEntity
  8
0
  6
Continuous
 62
     7
370
    13
100
AcDbCircle
 10
268.2168475305662
 20
135.9273538870184
 30
0.0
 40
1.000000004940205
100
AcDbArc
 50
90.00003051757808
 51
180.0000305175782
  0
ARC
  5
3CC
330
1F
100
AcDbEntity
  8
0
  6
Continuous
 62
     7
370
    13
100
AcDbCircle
 10
267.7728910043224
 20
133.5273360904248
 30
0.0
 40
0.6000060439753696
100
AcDbArc
 50
180.0000305175782
 51
0.0
  0
ARC
  5
3CD
330
1F
100
AcDbEntity
  8
0
  6
Continuous
 62
     7
370
    13
100
AcDbCircle
 10
269.2759889389563
 20
134.5220441695128
 30
0.0
 40
0.8999938184506675
100
AcDbArc
 50
0.0
 51
180.0
  0
ARC
  5
3CE
330
1F
100
AcDbEntity
  8
0
  6
Continuous
 62
     7
370
    13
100
AcDbCircle
 10
270.6973327568412
 20
134.4109931779967
 30
0.0
 40
0.5000000024701023
100
AcDbArc
 50
180.0000305175782
 51
270.0
  0
CIRCLE
  5
3CF
330
1F
100
AcDbEntity
  8
0
  6
Continuous
 62
     7
370
    13
100
AcDbCircle
 10
258.4086794550094
 20
100.4273855115243
 30
0.0
 40
4.500000118887101
  0
CIRCLE
  5
3D0
330
1F
100
AcDbEntity
  8
0
  6
Continuous
 62
     7
370
    13
100
AcDbCircle
 10
258.4086794550094
 20
17.42738452155027
 30
0.0
 40
4.500000118887101
  0
CIRCLE
  5
3D1
330
1F
100
AcDbEntity
  8
0
  6
Continuous
 62
     7
370
    13
100
AcDbCircle
 10
263.6709821211698
 20
58.98396213153319
 30
0.0
 40
9.999999662777327
  0
ARC
  5
3D2
330
1F
100
AcDbEntity
  8
0
  6
Continuous
 62
     7
370
    13
100
AcDbCircle
 10
279.3709892546321
 20
119.9271032751567
 30
0.0
 40
1.000000004940205
100
AcDbArc
 50
180.0
 51
270.0
  0
ARC
  5
3D3
330
1F
100
AcDbEntity
  8
0
  6
Continuous
 62
     7
370
    13
100
AcDbCircle
 10
280.3709925458825
 20
119.9271032751567
 30
0.0
 40
1.000000004940205
100
AcDbArc
 50
270.0
 51
0.0
  0
LINE
  5
3D4
330
1F
100
AcDbEntity
  8
0
  6
HIDDENX2
 62
     4
370
    13
100
AcDbLine
 10
-138.251135474864
 20
-278.5037946476291
 30
0.0
 11
-138.251135474864
 21
278.213020381867
 31
0.0
  0
LINE
  5
3D5
330
1F
100
AcDbEntity
  8
0
  6
HIDDENX2
 62
     4
370
    13
100
AcDbLine
 10
121.7488542108476
 20
-278.5037946476291
 30
0.0
 11
121.7488542108476
 21
278.213020381867
 31
0.0
  0
LINE
  5
3D6
330
1F
100
AcDbEntity
  8
0
  6
CENTER
 62
     4
370
    13
100
AcDbLine
 10
-334.1315742950464
 20
-67.48671194518829
 30
0.0
 11
-334.1315742950464
 21
-67.16526287415763
 31
0.0
  0
LINE
  5
3D7
330
1F
100
AcDbEntity
  8
0
  6
CENTER
 62
     4
370
    13
100
AcDbLine
 10
-334.1315742950464
 20
-82.23603054365958
 30
0.0
 11
-334.1315742950464
 21
-82.92106768718077
 31
0.0
  0
LINE
  5
3D8
330
1F
100
AcDbEntity
  8
0
  6
CENTER
 62
     4
370
    13
100
AcDbLine
 10
-234.1314678658528
 20
-82.23603054365958
 30
0.0
 11
-234.1314678658528
 21
-81.5509934001384
 31
0.0
  0
LINE
  5
3D9
330
1F
100
AcDbEntity
  8
0
  6
CENTER
 62
     4
370
    13
100
AcDbLine
 10
-234.1314678658528
 20
-67.48671194518829
 30
0.0
 11
-234.1314678658528
 21
-67.64477650263143
 31
0.0
  0
LINE
  5
3DA
330
1F
100
AcDbEntity
  8
0
  6
CENTER
 62
     4
370
    13
100
AcDbLine
 10
-235.1316196209955
 20
-67.48671194518829
 30
0.0
 11
-235.3027490009699
 21
-67.48671194518829
 31
0.0
  0
LINE
  5
3DB
330
1F
100
AcDbEntity
  8
0
  6
CENTER
 62
     4
370
    13
100
AcDbLine
 10
-234.1314678658528
 20
-47.7641746230438
 30
0.0
 11
-234.1314678658528
 21
-47.70859963932162
 31
0.0
  0
LINE
  5
3DC
330
1F
100
AcDbEntity
  8
0
  6
CENTER
 62
     4
370
    13
100
AcDbLine
 10
-254.1314347149309
 20
-47.7641746230438
 30
0.0
 11
-254.2420403147698
 21
-47.7641746230438
 31
0.0
  0
LINE
  5
3DD
330
1F
100
AcDbEntity
  8
0
  6
CENTER
 62
     4
370
    13
100
AcDbLine
 10
-187.0985026568669
 20
-23.30853417920298
 30
0.0
 11
-187.0985026568669
 21
-22.96031211957597
 31
0.0
  0
LINE
  5
3DE
330
1F
100
AcDbEntity
  8
0
  6
CENTER
 62
     4
370
    13
100
AcDbLine
 10
-205.9245160207647
 20
-23.30853417920298
 30
0.0
 11
-205.8346458778979
 21
-23.30853417920298
 31
0.0
  0
LINE
  5
3DF
330
1F
100
AcDbEntity
  8
0
  6
CENTER
 62
     4
370
    13
100
AcDbLine
 10
-219.3717320509313
 20
20.1914357823116
 30
0.0
 11
-219.702806530986
 21
20.1914357823116
 31
0.0
  0
LINE
  5
3E0
330
1F
100
AcDbEntity
  8
0
  6
CENTER
 62
     4
370
    13
100
AcDbLine
 10
-205.9245160207647
 20
61.69147339327174
 30
0.0
 11
-205.9245160207647
 21
61.12612289100798
 31
0.0
  0
LINE
  5
3E1
330
1F
100
AcDbEntity
  8
0
  6
CENTER
 62
     4
370
    13
100
AcDbLine
 10
-219.3717320509313
 20
103.1914862602498
 30
0.0
 11
-219.3717320509313
 21
102.6959137874146
 31
0.0
  0
LINE
  5
3E2
330
1F
100
AcDbEntity
  8
0
  6
CENTER
 62
     4
370
    13
100
AcDbLine
 10
-187.0985026568669
 20
146.6913819898182
 30
0.0
 11
-187.0985026568669
 21
147.036956443364
 31
0.0
  0
LINE
  5
3E3
330
1F
100
AcDbEntity
  8
0
  6
CENTER
 62
     4
370
    13
100
AcDbLine
 10
-296.468858166998
 20
61.69147339327174
 30
0.0
 11
-239.9446705487499
 21
61.69147339327174
 31
0.0
  0
LINE
  5
3E4
330
1F
100
AcDbEntity
  8
0
  6
CENTER
 62
     4
370
    13
100
AcDbLine
 10
-254.1314347149309
 20
87.31507927863277
 30
0.0
 11
-254.1314347149309
 21
23.33887030121696
 31
0.0
  0
LINE
  5
3E5
330
1F
100
AcDbEntity
  8
0
  6
CENTER
 62
     4
370
    13
100
AcDbLine
 10
-269.1314840836858
 20
122.3115323630482
 30
0.0
 11
-269.1314840836858
 21
92.37054699869623
 31
0.0
  0
LINE
  5
3E6
330
1F
100
AcDbEntity
  8
0
  6
CENTER
 62
     4
370
    13
100
AcDbLine
 10
-269.1314840836858
 20
32.71124736461206
 30
0.0
 11
-269.1314840836858
 21
5.904804904508637
 31
0.0
  0
LINE
  5
3E7
330
1F
100
AcDbEntity
  8
0
  6
CENTER
 62
     4
370
    13
100
AcDbLine
 10
55.7122138467239
 20
58.73182095427183
 30
0.0
 11
55.42988501134096
 21
58.73182095427183
 31
0.0
  0
LINE
  5
3E8
330
1F
100
AcDbEntity
  8
0
  6
CENTER
 62
     4
370
    13
100
AcDbLine
 10
41.36857283423888
 20
17.23180808729376
 30
0.0
 11
40.81801923325111
 21
17.23180808729376
 31
0.0
  0
LINE
  5
3E9
330
1F
100
AcDbEntity
  8
0
  6
CENTER
 62
     4
370
    13
100
AcDbLine
 10
41.36857283423888
 20
100.231858565232
 30
0.0
 11
40.81801923325111
 21
100.231858565232
 31
0.0
  0
LINE
  5
3EA
330
1F
100
AcDbEntity
  8
0
  6
CENTER
 62
     4
370
    13
100
AcDbLine
 10
-37.52142799044668
 20
58.73182095427183
 30
0.0
 11
18.826458755575
 21
58.73182095427183
 31
0.0
  0
LINE
  5
3EB
330
1F
100
AcDbEntity
  8
0
  6
CENTER
 62
     4
370
    13
100
AcDbLine
 10
-0.3602723788935691
 20
118.7318204774347
 30
0.0
 11
-0.3602723788935691
 21
91.28443464985321
 31
0.0
  0
LINE
  5
3EC
330
1F
100
AcDbEntity
  8
0
  6
CENTER
 62
     4
370
    13
100
AcDbLine
 10
4.639694589393912
 20
90.51477308766334
 30
0.0
 11
4.639694589393912
 21
24.06993125138251
 31
0.0
  0
LINE
  5
3ED
330
1F
100
AcDbEntity
  8
0
  6
CENTER
 62
     4
370
    13
100
AcDbLine
 10
-0.3602723788935691
 20
27.14847852421371
 30
0.0
 11
-0.3602723788935691
 21
-6.253546587759047
 31
0.0
  0
LINE
  5
3EE
330
1F
100
AcDbEntity
  8
0
  6
CENTER
 62
     4
370
    13
100
AcDbLine
 10
283.6709984582121
 20
-67.25085230812692
 30
0.0
 11
283.6709984582121
 21
-66.94373000271298
 31
0.0
  0
LINE
  5
3EF
330
1F
100
AcDbEntity
  8
0
  6
CENTER
 62
     4
370
    13
100
AcDbLine
 10
283.6709984582121
 20
-46.49305152028683
 30
0.0
 11
283.6709984582121
 21
-46.84424285776186
 31
0.0
  0
LINE
  5
3F0
330
1F
100
AcDbEntity
  8
0
  6
CENTER
 62
     4
370
    13
100
AcDbLine
 10
263.6709821211698
 20
-46.49305152028683
 30
0.0
 11
263.115232283948
 21
-46.49305152028683
 31
0.0
  0
LINE
  5
3F1
330
1F
100
AcDbEntity
  8
0
  6
CENTER
 62
     4
370
    13
100
AcDbLine
 10
183.6710157489288
 20
-67.25085230812692
 30
0.0
 11
183.6710157489288
 21
-66.34670720340364
 31
0.0
  0
LINE
  5
3F2
330
1F
100
AcDbEntity
  8
0
  6
CENTER
 62
     4
370
    13
100
AcDbLine
 10
275.8702601597761
 20
58.92737264454627
 30
0.0
 11
224.6648162307829
 21
58.92737264454627
 31
0.0
  0
LINE
  5
3F3
330
1F
100
AcDbEntity
  8
0
  6
CENTER
 62
     4
370
    13
100
AcDbLine
 10
258.4086794550094
 20
86.02334443881409
 30
0.0
 11
258.4086794550094
 21
106.1406719948354
 31
0.0
  0
LINE
  5
3F4
330
1F
100
AcDbEntity
  8
0
  6
CENTER
 62
     4
370
    13
100
AcDbLine
 10
258.4086794550094
 20
3.023343448840023
 30
0.0
 11
258.4086794550094
 21
23.14067100486136
 31
0.0
  0
LINE
  5
3F5
330
1F
100
AcDbEntity
  8
0
  6
CENTER
 62
     4
370
    13
100
AcDbLine
 10
225.5549562416563
 20
58.92737264454627
 30
0.0
 11
279.7206712092011
 21
58.92737264454627
 31
0.0
  0
LINE
  5
3F6
330
1F
100
AcDbEntity
  8
0
  6
CENTER
 62
     4
370
    13
100
AcDbLine
 10
263.6709821211698
 20
91.88999412297562
 30
0.0
 11
263.6709821211698
 21
30.6845172814792
 31
0.0
  0
LINE
  5
3F7
330
1F
100
AcDbEntity
  8
0
  6
CENTER
 62
     4
370
    13
100
AcDbLine
 10
299.5570308488532
 20
-23.07262505417748
 30
0.0
 11
299.2718811995146
 21
-23.07262505417748
 31
0.0
  0
LINE
  5
3F8
330
1F
100
AcDbEntity
  8
0
  6
CENTER
 62
     4
370
    13
100
AcDbLine
 10
233.3766279489209
 20
17.42738452155027
 30
0.0
 11
279.7206712092011
 21
17.42738452155027
 31
0.0
  0
LINE
  5
3F9
330
1F
100
AcDbEntity
  8
0
  6
CENTER
 62
     4
370
    13
100
AcDbLine
 10
229.794540641029
 20
100.4273855115243
 30
0.0
 11
279.7206712092011
 21
100.4273855115243
 31
0.0
  0
LINE
  5
3FA
330
1F
100
AcDbEntity
  8
0
  6
CENTER
 62
     4
370
    13
100
AcDbLine
 10
31.50735366113076
 20
100.231858565232
 30
0.0
 11
-27.22040928008209
 21
100.231858565232
 31
0.0
  0
LINE
  5
3FB
330
1F
100
AcDbEntity
  8
0
  6
CENTER
 62
     4
370
    13
100
AcDbLine
 10
31.50735366113076
 20
17.23180808729376
 30
0.0
 11
-29.90696238901
 21
17.23180808729376
 31
0.0
  0
LINE
  5
3FC
330
1F
100
AcDbEntity
  8
0
  6
CENTER
 62
     4
370
    13
100
AcDbLine
 10
-219.3717320509313
 20
20.1914357823116
 30
0.0
 11
-291.399509072995
 21
20.1914357823116
 31
0.0
  0
LINE
  5
3FD
330
1F
100
AcDbEntity
  8
0
  6
CENTER
 62
     4
370
    13
100
AcDbLine
 10
-228.3364272657927
 20
103.1914862602498
 30
0.0
 11
-289.608453047058
 21
103.1914862602498
 31
0.0
  0
LINE
  5
3FE
330
1F
100
AcDbEntity
  8
0
  6
Continuous
 62
     6
370
    13
100
AcDbLine
 10
-187.0985026568669
 20
-23.30853417920298
 30
0.0
 11
-188.1337908665446
 21
-19.44481086742599
 31
0.0
  0
LINE
  5
3FF
330
1F
100
AcDbEntity
  8
0
  6
Continuous
 62
     6
370
    13
100
AcDbLine
 10
-187.0985026568669
 20
-23.30853417920298
 30
0.0
 11
-186.0632639351534
 21
-19.44481086742599
 31
0.0
  0
LINE
  5
400
330
1F
100
AcDbEntity
  8
0
  6
Continuous
 62
     6
370
    13
100
AcDbLine
 10
-187.0985026568669
 20
146.6913819898182
 30
0.0
 11
-188.1337908665446
 21
142.8276586780412
 31
0.0
  0
LINE
  5
401
330
1F
100
AcDbEntity
  8
0
  6
Continuous
 62
     6
370
    13
100
AcDbLine
 10
-187.0985026568669
 20
146.6913819898182
 30
0.0
 11
-186.0632639351534
 21
142.8276586780412
 31
0.0
  0
LINE
  5
402
330
1F
100
AcDbEntity
  8
0
  6
Continuous
 62
     6
370
    13
100
AcDbLine
 10
-334.1315742950464
 20
-67.48671194518829
 30
0.0
 11
-330.2678509832695
 21
-66.45142373551062
 31
0.0
  0
LINE
  5
403
330
1F
100
AcDbEntity
  8
0
  6
Continuous
 62
     6
370
    13
100
AcDbLine
 10
-334.1315742950464
 20
-67.48671194518829
 30
0.0
 11
-330.2678509832695
 21
-68.52200015486596
 31
0.0
  0
LINE
  5
404
330
1F
100
AcDbEntity
  8
0
  6
Continuous
 62
     6
370
    13
100
AcDbLine
 10
-235.1316196209955
 20
-67.48671194518829
 30
0.0
 11
-238.9952439568442
 21
-66.45142373551062
 31
0.0
  0
LINE
  5
405
330
1F
100
AcDbEntity
  8
0
  6
Continuous
 62
     6
370
    13
100
AcDbLine
 10
-235.1316196209955
 20
-67.48671194518829
 30
0.0
 11
-238.9952439568442
 21
-68.52200015486596
 31
0.0
  0
LINE
  5
406
330
1F
100
AcDbEntity
  8
0
  6
Continuous
 62
     6
370
    13
100
AcDbLine
 10
-234.1314678658528
 20
-67.48671194518829
 30
0.0
 11
-230.2677940420399
 21
-66.45142373551062
 31
0.0
  0
LINE
  5
407
330
1F
100
AcDbEntity
  8
0
  6
Continuous
 62
     6
370
    13
100
AcDbLine
 10
-234.1314678658528
 20
-67.48671194518829
 30
0.0
 11
-230.2677940420399
 21
-68.52200015486596
 31
0.0
  0
LINE
  5
408
330
1F
100
AcDbEntity
  8
0
  6
Continuous
 62
     6
370
    13
100
AcDbLine
 10
-205.9245160207647
 20
-23.30853417920298
 30
0.0
 11
-206.9598537184065
 21
-19.44481086742599
 31
0.0
  0
LINE
  5
409
330
1F
100
AcDbEntity
  8
0
  6
Continuous
 62
     6
370
    13
100
AcDbLine
 10
-205.9245160207647
 20
-23.30853417920298
 30
0.0
 11
-204.8892772990512
 21
-19.44481086742599
 31
0.0
  0
LINE
  5
40A
330
1F
100
AcDbEntity
  8
0
  6
Continuous
 62
     6
370
    13
100
AcDbLine
 10
-205.9245160207647
 20
61.69147339327174
 30
0.0
 11
-206.9598537184065
 21
57.82775008149474
 31
0.0
  0
LINE
  5
40B
330
1F
100
AcDbEntity
  8
0
  6
Continuous
 62
     6
370
    13
100
AcDbLine
 10
-205.9245160207647
 20
61.69147339327174
 30
0.0
 11
-204.8892772990512
 21
57.82775008149474
 31
0.0
  0
LINE
  5
40C
330
1F
100
AcDbEntity
  8
0
  6
Continuous
 62
     6
370
    13
100
AcDbLine
 10
-219.3717320509313
 20
20.1914357823116
 30
0.0
 11
-220.4069707726449
 21
24.05515909408859
 31
0.0
  0
LINE
  5
40D
330
1F
100
AcDbEntity
  8
0
  6
Continuous
 62
     6
370
    13
100
AcDbLine
 10
-219.3717320509313
 20
20.1914357823116
 30
0.0
 11
-218.3363943532895
 21
24.05515909408859
 31
0.0
  0
LINE
  5
40E
330
1F
100
AcDbEntity
  8
0
  6
Continuous
 62
     6
370
    13
100
AcDbLine
 10
-219.3717320509313
 20
103.1914862602498
 30
0.0
 11
-220.4069707726449
 21
99.32776294847281
 31
0.0
  0
LINE
  5
40F
330
1F
100
AcDbEntity
  8
0
  6
Continuous
 62
     6
370
    13
100
AcDbLine
 10
-219.3717320509313
 20
103.1914862602498
 30
0.0
 11
-218.3363943532895
 21
99.32776294847281
 31
0.0
  0
LINE
  5
410
330
1F
100
AcDbEntity
  8
0
  6
Continuous
 62
     6
370
    13
100
AcDbLine
 10
-254.1314347149309
 20
-47.7641746230438
 30
0.0
 11
-250.2677608911181
 21
-46.72888641336613
 31
0.0
  0
LINE
  5
411
330
1F
100
AcDbEntity
  8
0
  6
Continuous
 62
     6
370
    13
100
AcDbLine
 10
-254.1314347149309
 20
-47.7641746230438
 30
0.0
 11
-250.2677608911181
 21
-48.79946283272147
 31
0.0
  0
LINE
  5
412
330
1F
100
AcDbEntity
  8
0
  6
Continuous
 62
     6
370
    13
100
AcDbLine
 10
-234.1314678658528
 20
-47.7641746230438
 30
0.0
 11
-237.9951911776297
 21
-46.72888641336613
 31
0.0
  0
LINE
  5
413
330
1F
100
AcDbEntity
  8
0
  6
Continuous
 62
     6
370
    13
100
AcDbLine
 10
-234.1314678658528
 20
-47.7641746230438
 30
0.0
 11
-237.9951911776297
 21
-48.79946283272147
 31
0.0
  0
LINE
  5
414
330
1F
100
AcDbEntity
  8
0
  6
Continuous
 62
     6
370
    13
100
AcDbLine
 10
-334.1315742950464
 20
-82.23603054365958
 30
0.0
 11
-330.2678509832695
 21
-81.2007423339819
 31
0.0
  0
LINE
  5
415
330
1F
100
AcDbEntity
  8
0
  6
Continuous
 62
     6
370
    13
100
AcDbLine
 10
-334.1315742950464
 20
-82.23603054365958
 30
0.0
 11
-330.2678509832695
 21
-83.27131875333725
 31
0.0
  0
LINE
  5
416
330
1F
100
AcDbEntity
  8
0
  6
Continuous
 62
     6
370
    13
100
AcDbLine
 10
-234.1314678658528
 20
-82.23603054365958
 30
0.0
 11
-237.9951911776297
 21
-81.2007423339819
 31
0.0
  0
LINE
  5
417
330
1F
100
AcDbEntity
  8
0
  6
Continuous
 62
     6
370
    13
100
AcDbLine
 10
-234.1314678658528
 20
-82.23603054365958
 30
0.0
 11
-237.9951911776297
 21
-83.27131875333725
 31
0.0
  0
LINE
  5
418
330
1F
100
AcDbEntity
  8
0
  6
Continuous
 62
     6
370
    13
100
AcDbLine
 10
-269.1521700526937
 20
79.11254819939495
 30
0.0
 11
-265.6880620512966
 21
81.1125547818956
 31
0.0
  0
LINE
  5
419
330
1F
100
AcDbEntity
  8
0
  6
Continuous
 62
     6
370
    13
100
AcDbLine
 10
-269.1521700526937
 20
79.11254819939495
 30
0.0
 11
-265.1522558636207
 21
79.11254819939495
 31
0.0
  0
LINE
  5
41A
330
1F
100
AcDbEntity
  8
0
  6
Continuous
 62
     6
370
    13
100
AcDbLine
 10
-249.833652469737
 20
84.28891501583712
 30
0.0
 11
-253.8336656347383
 21
84.28891501583712
 31
0.0
  0
LINE
  5
41B
330
1F
100
AcDbEntity
  8
0
  6
Continuous
 62
     6
370
    13
100
AcDbLine
 10
-249.833652469737
 20
84.28891501583712
 30
0.0
 11
-253.2977604711341
 21
82.2888836893544
 31
0.0
  0
LINE
  5
41C
330
1F
100
AcDbEntity
  8
0
  6
Continuous
 62
     6
370
    13
100
AcDbLine
 10
-275.8050350230478
 20
110.7108607386035
 30
0.0
 11
-273.2915413246956
 21
112.1620457988611
 31
0.0
  0
LINE
  5
41D
330
1F
100
AcDbEntity
  8
0
  6
Continuous
 62
     6
370
    13
100
AcDbLine
 10
-275.8050350230478
 20
110.7108607386035
 30
0.0
 11
-273.0593437969801
 21
110.7108607386035
 31
0.0
  0
LINE
  5
41E
330
1F
100
AcDbEntity
  8
0
  6
Continuous
 62
     6
370
    13
100
AcDbLine
 10
-267.1116328275675
 20
113.0402097224141
 30
0.0
 11
-269.5826163647289
 21
111.6136696682952
 31
0.0
  0
LINE
  5
41F
330
1F
100
AcDbEntity
  8
0
  6
Continuous
 62
     6
370
    13
100
AcDbLine
 10
-267.1116328275675
 20
113.0402097224141
 30
0.0
 11
-269.9203717199416
 21
113.0402097224141
 31
0.0
  0
LINE
  5
420
330
1F
100
AcDbEntity
  8
0
  6
Continuous
 62
     6
370
    13
100
AcDbLine
 10
-205.9245160207647
 20
61.69147339327174
 30
0.0
 11
-206.9598537184065
 21
65.55512247310253
 31
0.0
  0
LINE
  5
421
330
1F
100
AcDbEntity
  8
0
  6
Continuous
 62
     6
370
    13
100
AcDbLine
 10
-205.9245160207647
 20
61.69147339327174
 30
0.0
 11
-204.8892772990512
 21
65.55512247310253
 31
0.0
  0
LINE
  5
422
330
1F
100
AcDbEntity
  8
0
  6
Continuous
 62
     6
370
    13
100
AcDbLine
 10
-205.9245160207647
 20
146.6913819898182
 30
0.0
 11
-206.9598537184065
 21
142.8276586780412
 31
0.0
  0
LINE
  5
423
330
1F
100
AcDbEntity
  8
0
  6
Continuous
 62
     6
370
    13
100
AcDbLine
 10
-205.9245160207647
 20
146.6913819898182
 30
0.0
 11
-204.8892772990512
 21
142.8276586780412
 31
0.0
  0
LINE
  5
424
330
1F
100
AcDbEntity
  8
0
  6
Continuous
 62
     6
370
    13
100
AcDbLine
 10
55.7122138467239
 20
58.73182095427183
 30
0.0
 11
54.67697512501036
 21
54.8681223864769
 31
0.0
  0
LINE
  5
425
330
1F
100
AcDbEntity
  8
0
  6
Continuous
 62
     6
370
    13
100
AcDbLine
 10
55.7122138467239
 20
58.73182095427183
 30
0.0
 11
56.74755154436571
 21
54.8681223864769
 31
0.0
  0
LINE
  5
426
330
1F
100
AcDbEntity
  8
0
  6
Continuous
 62
     6
370
    13
100
AcDbLine
 10
41.36857283423888
 20
17.23180808729376
 30
0.0
 11
40.33333411252534
 21
21.09553139907075
 31
0.0
  0
LINE
  5
427
330
1F
100
AcDbEntity
  8
0
  6
Continuous
 62
     6
370
    13
100
AcDbLine
 10
41.36857283423888
 20
17.23180808729376
 30
0.0
 11
42.40381155595242
 21
21.09553139907075
 31
0.0
  0
LINE
  5
428
330
1F
100
AcDbEntity
  8
0
  6
Continuous
 62
     6
370
    13
100
AcDbLine
 10
41.36857283423888
 20
100.231858565232
 30
0.0
 11
40.33333411252534
 21
96.36813525345497
 31
0.0
  0
LINE
  5
429
330
1F
100
AcDbEntity
  8
0
  6
Continuous
 62
     6
370
    13
100
AcDbLine
 10
41.36857283423888
 20
100.231858565232
 30
0.0
 11
42.40381155595242
 21
96.36813525345497
 31
0.0
  0
LINE
  5
42A
330
1F
100
AcDbEntity
  8
0
  6
Continuous
 62
     6
370
    13
100
AcDbLine
 10
-9.618332245139754
 20
73.30619959953037
 30
0.0
 11
-6.154224243742647
 21
75.30620618203102
 31
0.0
  0
LINE
  5
42B
330
1F
100
AcDbEntity
  8
0
  6
Continuous
 62
     6
370
    13
100
AcDbLine
 10
-9.618332245139754
 20
73.30619959953037
 30
0.0
 11
-5.618319080138463
 21
73.30619959953037
 31
0.0
  0
LINE
  5
42C
330
1F
100
AcDbEntity
  8
0
  6
Continuous
 62
     6
370
    13
100
AcDbLine
 10
9.700185337816947
 20
78.48259115995461
 30
0.0
 11
5.700172172815655
 21
78.48259115995461
 31
0.0
  0
LINE
  5
42D
330
1F
100
AcDbEntity
  8
0
  6
Continuous
 62
     6
370
    13
100
AcDbLine
 10
9.700185337816947
 20
78.48259115995461
 30
0.0
 11
6.236077336419839
 21
76.48258457745396
 31
0.0
  0
LINE
  5
42E
330
1F
100
AcDbEntity
  8
0
  6
Continuous
 62
     6
370
    13
100
AcDbLine
 10
-7.178823053167434
 20
108.2920375156391
 30
0.0
 11
-4.655827665701509
 21
108.2920375156391
 31
0.0
  0
LINE
  5
42F
330
1F
100
AcDbEntity
  8
0
  6
Continuous
 62
     6
370
    13
100
AcDbLine
 10
-7.178823053167434
 20
108.2920375156391
 30
0.0
 11
-5.013229742675321
 21
109.5423509294778
 31
0.0
  0
LINE
  5
430
330
1F
100
AcDbEntity
  8
0
  6
Continuous
 62
     6
370
    13
100
AcDbLine
 10
1.514579142312868
 20
110.6214359874139
 30
0.0
 11
-0.607019368064357
 21
109.3965346431578
 31
0.0
  0
LINE
  5
431
330
1F
100
AcDbEntity
  8
0
  6
Continuous
 62
     6
370
    13
100
AcDbLine
 10
-1.032764323506854
 20
109.1507279253055
 30
0.0
 11
-1.044740410827217
 21
109.1437996103268
 31
0.0
  0
LINE
  5
432
330
1F
100
AcDbEntity
  8
0
  6
Continuous
 62
     6
370
    13
100
AcDbLine
 10
1.514579142312868
 20
110.6214359874139
 30
0.0
 11
-0.6369595863652648
 21
110.6214359874139
 31
0.0
  0
LINE
  5
433
330
1F
100
AcDbEntity
  8
0
  6
Continuous
 62
     6
370
    13
100
AcDbLine
 10
-1.22962744483084
 20
110.6214359874139
 30
0.0
 11
-1.26530826697126
 21
110.6214359874139
 31
0.0
  0
LINE
  5
434
330
1F
100
AcDbEntity
  8
0
  6
Continuous
 62
     6
370
    13
100
AcDbLine
 10
55.7122138467239
 20
-23.26815200046985
 30
0.0
 11
54.67697512501036
 21
-19.40442868869286
 31
0.0
  0
LINE
  5
435
330
1F
100
AcDbEntity
  8
0
  6
Continuous
 62
     6
370
    13
100
AcDbLine
 10
55.7122138467239
 20
-23.26815200046985
 30
0.0
 11
56.74755154436571
 21
-19.40442868869286
 31
0.0
  0
LINE
  5
436
330
1F
100
AcDbEntity
  8
0
  6
Continuous
 62
     6
370
    13
100
AcDbLine
 10
4.639694589393912
 20
-47.7641746230438
 30
0.0
 11
8.503318925242638
 21
-46.72888641336613
 31
0.0
  0
LINE
  5
437
330
1F
100
AcDbEntity
  8
0
  6
Continuous
 62
     6
370
    13
100
AcDbLine
 10
4.639694589393912
 20
-47.7641746230438
 30
0.0
 11
8.503318925242638
 21
-48.79946283272147
 31
0.0
  0
LINE
  5
438
330
1F
100
AcDbEntity
  8
0
  6
Continuous
 62
     6
370
    13
100
AcDbLine
 10
24.65831840095052
 20
-47.7641746230438
 30
0.0
 11
20.79464457713766
 21
-46.72888641336613
 31
0.0
  0
LINE
  5
439
330
1F
100
AcDbEntity
  8
0
  6
Continuous
 62
     6
370
    13
100
AcDbLine
 10
24.65831840095052
 20
-47.7641746230438
 30
0.0
 11
20.79464457713766
 21
-48.79946283272147
 31
0.0
  0
LINE
  5
43A
330
1F
100
AcDbEntity
  8
0
  6
Continuous
 62
     6
370
    13
100
AcDbLine
 10
-75.34166430833284
 20
-67.10407100650627
 30
0.0
 11
-71.47789150859171
 21
-66.06883228479273
 31
0.0
  0
LINE
  5
43B
330
1F
100
AcDbEntity
  8
0
  6
Continuous
 62
     6
370
    13
100
AcDbLine
 10
-75.34166430833284
 20
-67.10407100650627
 30
0.0
 11
-71.47789150859171
 21
-68.13933447220188
 31
0.0
  0
LINE
  5
43C
330
1F
100
AcDbEntity
  8
0
  6
Continuous
 62
     6
370
    13
100
AcDbLine
 10
24.65831840095052
 20
-67.10407100650627
 30
0.0
 11
20.79464457713766
 21
-66.06883228479273
 31
0.0
  0
LINE
  5
43D
330
1F
100
AcDbEntity
  8
0
  6
Continuous
 62
     6
370
    13
100
AcDbLine
 10
24.65831840095052
 20
-67.10407100650627
 30
0.0
 11
20.79464457713766
 21
-68.13933447220188
 31
0.0
  0
LINE
  5
43E
330
1F
100
AcDbEntity
  8
0
  6
Continuous
 62
     6
370
    13
100
AcDbLine
 10
71.97069265543541
 20
-23.26815200046985
 30
0.0
 11
70.93550342168601
 21
-19.40442868869286
 31
0.0
  0
LINE
  5
43F
330
1F
100
AcDbEntity
  8
0
  6
Continuous
 62
     6
370
    13
100
AcDbLine
 10
71.97069265543541
 20
-23.26815200046985
 30
0.0
 11
73.00593137714895
 21
-19.40442868869286
 31
0.0
  0
LINE
  5
440
330
1F
100
AcDbEntity
  8
0
  6
Continuous
 62
     6
370
    13
100
AcDbLine
 10
71.97069265543541
 20
146.6914314777823
 30
0.0
 11
70.93550342168601
 21
142.8277081660053
 31
0.0
  0
LINE
  5
441
330
1F
100
AcDbEntity
  8
0
  6
Continuous
 62
     6
370
    13
100
AcDbLine
 10
71.97069265543541
 20
146.6914314777823
 30
0.0
 11
73.00593137714895
 21
142.8277081660053
 31
0.0
  0
LINE
  5
442
330
1F
100
AcDbEntity
  8
0
  6
Continuous
 62
     6
370
    13
100
AcDbLine
 10
55.7122138467239
 20
58.73182095427183
 30
0.0
 11
54.67692563704622
 21
62.59551952206675
 31
0.0
  0
LINE
  5
443
330
1F
100
AcDbEntity
  8
0
  6
Continuous
 62
     6
370
    13
100
AcDbLine
 10
55.7122138467239
 20
58.73182095427183
 30
0.0
 11
56.74750205640157
 21
62.59551952206675
 31
0.0
  0
LINE
  5
444
330
1F
100
AcDbEntity
  8
0
  6
Continuous
 62
     6
370
    13
100
AcDbLine
 10
55.7122138467239
 20
146.6914314777823
 30
0.0
 11
54.67692563704622
 21
142.8277081660053
 31
0.0
  0
LINE
  5
445
330
1F
100
AcDbEntity
  8
0
  6
Continuous
 62
     6
370
    13
100
AcDbLine
 10
55.7122138467239
 20
146.6914314777823
 30
0.0
 11
56.74750205640157
 21
142.8277081660053
 31
0.0
  0
LINE
  5
446
330
1F
100
AcDbEntity
  8
0
  6
Continuous
 62
     6
370
    13
100
AcDbLine
 10
183.6710157489288
 20
-67.25085230812692
 30
0.0
 11
187.5347390607058
 21
-66.21556409844925
 31
0.0
  0
LINE
  5
447
330
1F
100
AcDbEntity
  8
0
  6
Continuous
 62
     6
370
    13
100
AcDbLine
 10
183.6710157489288
 20
-67.25085230812692
 30
0.0
 11
187.5347390607058
 21
-68.28611577382253
 31
0.0
  0
LINE
  5
448
330
1F
100
AcDbEntity
  8
0
  6
Continuous
 62
     6
370
    13
100
AcDbLine
 10
283.6709984582121
 20
-67.25085230812692
 30
0.0
 11
279.8072751464351
 21
-66.21556409844925
 31
0.0
  0
LINE
  5
449
330
1F
100
AcDbEntity
  8
0
  6
Continuous
 62
     6
370
    13
100
AcDbLine
 10
283.6709984582121
 20
-67.25085230812692
 30
0.0
 11
279.8072751464351
 21
-68.28611577382253
 31
0.0
  0
LINE
  5
44A
330
1F
100
AcDbEntity
  8
0
  6
Continuous
 62
     6
370
    13
100
AcDbLine
 10
263.6709821211698
 20
-46.49305152028683
 30
0.0
 11
267.5347054329468
 21
-45.45776331060915
 31
0.0
  0
LINE
  5
44B
330
1F
100
AcDbEntity
  8
0
  6
Continuous
 62
     6
370
    13
100
AcDbLine
 10
263.6709821211698
 20
-46.49305152028683
 30
0.0
 11
267.5347054329468
 21
-47.52831498598243
 31
0.0
  0
LINE
  5
44C
330
1F
100
AcDbEntity
  8
0
  6
Continuous
 62
     6
370
    13
100
AcDbLine
 10
283.6709984582121
 20
-46.49305152028683
 30
0.0
 11
279.8072751464351
 21
-45.45776331060915
 31
0.0
  0
LINE
  5
44D
330
1F
100
AcDbEntity
  8
0
  6
Continuous
 62
     6
370
    13
100
AcDbLine
 10
283.6709984582121
 20
-46.49305152028683
 30
0.0
 11
279.8072751464351
 21
-47.52831498598243
 31
0.0
  0
LINE
  5
44E
330
1F
100
AcDbEntity
  8
0
  6
Continuous
 62
     6
370
    13
100
AcDbLine
 10
251.6469409635611
 20
108.2759291833136
 30
0.0
 11
255.1110489649582
 21
110.2759357658142
 31
0.0
  0
LINE
  5
44F
330
1F
100
AcDbEntity
  8
0
  6
Continuous
 62
     6
370
    13
100
AcDbLine
 10
251.6469409635611
 20
108.2759291833136
 30
0.0
 11
255.6469046405982
 21
108.2759291833136
 31
0.0
  0
LINE
  5
450
330
1F
100
AcDbEntity
  8
0
  6
Continuous
 62
     6
370
    13
100
AcDbLine
 10
260.3402441831131
 20
110.6052781671242
 30
0.0
 11
256.3402805060759
 21
110.6052781671242
 31
0.0
  0
LINE
  5
451
330
1F
100
AcDbEntity
  8
0
  6
Continuous
 62
     6
370
    13
100
AcDbLine
 10
260.3402441831131
 20
110.6052781671242
 30
0.0
 11
256.876136181716
 21
108.6052715846236
 31
0.0
  0
LINE
  5
452
330
1F
100
AcDbEntity
  8
0
  6
Continuous
 62
     6
370
    13
100
AcDbLine
 10
298.9151224660745
 20
17.42738452155027
 30
0.0
 11
297.8798342563969
 21
21.29108308934519
 31
0.0
  0
LINE
  5
453
330
1F
100
AcDbEntity
  8
0
  6
Continuous
 62
     6
370
    13
100
AcDbLine
 10
298.9151224660745
 20
17.42738452155027
 30
0.0
 11
299.9503611877881
 21
21.29108308934519
 31
0.0
  0
LINE
  5
454
330
1F
100
AcDbEntity
  8
0
  6
Continuous
 62
     6
370
    13
100
AcDbLine
 10
298.9151224660745
 20
100.4273855115243
 30
0.0
 11
297.8798342563969
 21
96.56368694372941
 31
0.0
  0
LINE
  5
455
330
1F
100
AcDbEntity
  8
0
  6
Continuous
 62
     6
370
    13
100
AcDbLine
 10
298.9151224660745
 20
100.4273855115243
 30
0.0
 11
299.9503611877881
 21
96.56368694372941
 31
0.0
  0
LINE
  5
456
330
1F
100
AcDbEntity
  8
0
  6
Continuous
 62
     6
370
    13
100
AcDbLine
 10
249.9445549973607
 20
71.57471471041936
 30
0.0
 11
253.4086629987578
 21
73.57469654893794
 31
0.0
  0
LINE
  5
457
330
1F
100
AcDbEntity
  8
0
  6
Continuous
 62
     6
370
    13
100
AcDbLine
 10
249.9445549973607
 20
71.57471471041936
 30
0.0
 11
253.944568162362
 21
71.57471471041936
 31
0.0
  0
LINE
  5
458
330
1F
100
AcDbEntity
  8
0
  6
Continuous
 62
     6
370
    13
100
AcDbLine
 10
269.2630725803174
 20
76.75108152686153
 30
0.0
 11
265.2630594153161
 21
76.75108152686153
 31
0.0
  0
LINE
  5
459
330
1F
100
AcDbEntity
  8
0
  6
Continuous
 62
     6
370
    13
100
AcDbLine
 10
269.2630725803174
 20
76.75108152686153
 30
0.0
 11
265.7989645789203
 21
74.75109968834295
 31
0.0
  0
LINE
  5
45A
330
1F
100
AcDbEntity
  8
0
  6
Continuous
 62
     6
370
    13
100
AcDbLine
 10
331.2141350894526
 20
166.9271095000295
 30
0.0
 11
329.6612027749361
 21
161.1315740203281
 31
0.0
  0
LINE
  5
45B
330
1F
100
AcDbEntity
  8
0
  6
Continuous
 62
     6
370
    13
100
AcDbLine
 10
331.2141350894526
 20
166.9271095000295
 30
0.0
 11
332.7670674039691
 21
161.1315740203281
 31
0.0
  0
LINE
  5
45C
330
1F
100
AcDbEntity
  8
0
  6
Continuous
 62
     6
370
    13
100
AcDbLine
 10
329.6612027749361
 20
-17.27706483049406
 30
0.0
 11
331.2141350894526
 21
-23.07262505417748
 31
0.0
  0
LINE
  5
45D
330
1F
100
AcDbEntity
  8
0
  6
Continuous
 62
     6
370
    13
100
AcDbLine
 10
332.7670674039691
 20
-17.27706483049406
 30
0.0
 11
331.2141350894526
 21
-23.07262505417748
 31
0.0
  0
LINE
  5
45E
330
1F
100
AcDbEntity
  8
0
  6
Continuous
 62
     6
370
    13
100
AcDbLine
 10
311.9435713437415
 20
-23.07262505417748
 30
0.0
 11
311.1671051864832
 21
-20.1748573143268
 31
0.0
  0
LINE
  5
45F
330
1F
100
AcDbEntity
  8
0
  6
Continuous
 62
     6
370
    13
100
AcDbLine
 10
311.9435713437415
 20
-23.07262505417748
 30
0.0
 11
312.7200375009998
 21
-20.1748573143268
 31
0.0
  0
LINE
  5
460
330
1F
100
AcDbEntity
  8
0
  6
Continuous
 62
     6
370
    13
100
AcDbLine
 10
311.9435713437415
 20
58.92737264454627
 30
0.0
 11
311.1671051864832
 21
56.02960490469559
 31
0.0
  0
LINE
  5
461
330
1F
100
AcDbEntity
  8
0
  6
Continuous
 62
     6
370
    13
100
AcDbLine
 10
311.9435713437415
 20
58.92737264454627
 30
0.0
 11
312.7200375009998
 21
56.02960490469559
 31
0.0
  0
LINE
  5
462
330
1F
100
AcDbEntity
  8
0
  6
Continuous
 62
     6
370
    13
100
AcDbLine
 10
311.9435713437415
 20
58.92737264454627
 30
0.0
 11
311.1671051864832
 21
61.82514038439695
 31
0.0
  0
LINE
  5
463
330
1F
100
AcDbEntity
  8
0
  6
Continuous
 62
     6
370
    13
100
AcDbLine
 10
311.9435713437415
 20
58.92737264454627
 30
0.0
 11
312.7200375009998
 21
61.82514038439695
 31
0.0
  0
LINE
  5
464
330
1F
100
AcDbEntity
  8
0
  6
Continuous
 62
     6
370
    13
100
AcDbLine
 10
311.9435713437415
 20
166.9271095000295
 30
0.0
 11
311.1671051864832
 21
164.0293417601788
 31
0.0
  0
LINE
  5
465
330
1F
100
AcDbEntity
  8
0
  6
Continuous
 62
     6
370
    13
100
AcDbLine
 10
311.9435713437415
 20
166.9271095000295
 30
0.0
 11
312.7200375009998
 21
164.0293417601788
 31
0.0
  0
CIRCLE
  5
466
330
1F
100
AcDbEntity
  8
0
  6
Continuous
 62
     6
370
    13
100
AcDbCircle
 10
-334.1315742950464
 20
-67.48671194518829
 30
0.0
 40
0.8108108043670654
  0
CIRCLE
  5
467
330
1F
100
AcDbEntity
  8
0
  6
Continuous
 62
     6
370
    13
100
AcDbCircle
 10
-334.1315742950464
 20
-82.23603054365958
 30
0.0
 40
0.8108108043670654
  0
CIRCLE
  5
468
330
1F
100
AcDbEntity
  8
0
  6
Continuous
 62
     6
370
    13
100
AcDbCircle
 10
-234.1314678658528
 20
-82.23603054365958
 30
0.0
 40
0.8108108043670654
  0
CIRCLE
  5
469
330
1F
100
AcDbEntity
  8
0
  6
Continuous
 62
     6
370
    13
100
AcDbCircle
 10
-234.1314678658528
 20
-67.48671194518829
 30
0.0
 40
0.8108108043670654
  0
CIRCLE
  5
46A
330
1F
100
AcDbEntity
  8
0
  6
Continuous
 62
     6
370
    13
100
AcDbCircle
 10
-235.1316196209955
 20
-67.48671194518829
 30
0.0
 40
0.8108108043670654
  0
CIRCLE
  5
46B
330
1F
100
AcDbEntity
  8
0
  6
Continuous
 62
     6
370
    13
100
AcDbCircle
 10
-234.1314678658528
 20
-47.7641746230438
 30
0.0
 40
0.8108108043670654
  0
CIRCLE
  5
46C
330
1F
100
AcDbEntity
  8
0
  6
Continuous
 62
     6
370
    13
100
AcDbCircle
 10
-254.1314347149309
 20
-47.7641746230438
 30
0.0
 40
0.8108108043670654
  0
CIRCLE
  5
46D
330
1F
100
AcDbEntity
  8
0
  6
Continuous
 62
     6
370
    13
100
AcDbCircle
 10
-187.0985026568669
 20
-23.30853417920298
 30
0.0
 40
0.8108108043670654
  0
CIRCLE
  5
46E
330
1F
100
AcDbEntity
  8
0
  6
Continuous
 62
     6
370
    13
100
AcDbCircle
 10
-205.9245160207647
 20
-23.30853417920298
 30
0.0
 40
0.8108108043670654
  0
CIRCLE
  5
46F
330
1F
100
AcDbEntity
  8
0
  6
Continuous
 62
     6
370
    13
100
AcDbCircle
 10
-219.3717320509313
 20
20.1914357823116
 30
0.0
 40
0.8108108043670654
  0
CIRCLE
  5
470
330
1F
100
AcDbEntity
  8
0
  6
Continuous
 62
     6
370
    13
100
AcDbCircle
 10
-205.9245160207647
 20
61.69147339327174
 30
0.0
 40
0.8108108043670654
  0
CIRCLE
  5
471
330
1F
100
AcDbEntity
  8
0
  6
Continuous
 62
     6
370
    13
100
AcDbCircle
 10
-219.3717320509313
 20
103.1914862602498
 30
0.0
 40
0.8108108043670654
  0
CIRCLE
  5
472
330
1F
100
AcDbEntity
  8
0
  6
Continuous
 62
     6
370
    13
100
AcDbCircle
 10
-187.0985026568669
 20
146.6913819898182
 30
0.0
 40
0.8108108043670654
  0
CIRCLE
  5
473
330
1F
100
AcDbEntity
  8
0
  6
Continuous
 62
     6
370
    13
100
AcDbCircle
 10
-267.1116328275675
 20
113.0402097224141
 30
0.0
 40
0.8108108043670654
  0
CIRCLE
  5
474
330
1F
100
AcDbEntity
  8
0
  6
Continuous
 62
     6
370
    13
100
AcDbCircle
 10
-275.8050350230478
 20
110.7108607386035
 30
0.0
 40
0.8108108043670654
  0
CIRCLE
  5
475
330
1F
100
AcDbEntity
  8
0
  6
Continuous
 62
     6
370
    13
100
AcDbCircle
 10
-205.9245160207647
 20
146.6913819898182
 30
0.0
 40
0.8108108043670654
  0
CIRCLE
  5
476
330
1F
100
AcDbEntity
  8
0
  6
Continuous
 62
     6
370
    13
100
AcDbCircle
 10
55.7122138467239
 20
58.73182095427183
 30
0.0
 40
0.8108108043670654
  0
CIRCLE
  5
477
330
1F
100
AcDbEntity
  8
0
  6
Continuous
 62
     6
370
    13
100
AcDbCircle
 10
41.36857283423888
 20
17.23180808729376
 30
0.0
 40
0.8108108043670654
  0
CIRCLE
  5
478
330
1F
100
AcDbEntity
  8
0
  6
Continuous
 62
     6
370
    13
100
AcDbCircle
 10
41.36857283423888
 20
100.231858565232
 30
0.0
 40
0.8108108043670654
  0
CIRCLE
  5
479
330
1F
100
AcDbEntity
  8
0
  6
Continuous
 62
     6
370
    13
100
AcDbCircle
 10
1.514579142312868
 20
110.6214359874139
 30
0.0
 40
0.8108108043670654
  0
CIRCLE
  5
47A
330
1F
100
AcDbEntity
  8
0
  6
Continuous
 62
     6
370
    13
100
AcDbCircle
 10
-7.178823053167434
 20
108.2920375156391
 30
0.0
 40
0.8108108043670654
  0
CIRCLE
  5
47B
330
1F
100
AcDbEntity
  8
0
  6
Continuous
 62
     6
370
    13
100
AcDbCircle
 10
55.7122138467239
 20
-23.26815200046985
 30
0.0
 40
0.8108108043670654
  0
CIRCLE
  5
47C
330
1F
100
AcDbEntity
  8
0
  6
Continuous
 62
     6
370
    13
100
AcDbCircle
 10
55.7122138467239
 20
146.6914314777823
 30
0.0
 40
0.8108108043670654
  0
CIRCLE
  5
47D
330
1F
100
AcDbEntity
  8
0
  6
Continuous
 62
     6
370
    13
100
AcDbCircle
 10
71.97069265543541
 20
146.6914314777823
 30
0.0
 40
0.8108108043670654
  0
CIRCLE
  5
47E
330
1F
100
AcDbEntity
  8
0
  6
Continuous
 62
     6
370
    13
100
AcDbCircle
 10
71.97069265543541
 20
-23.26815200046985
 30
0.0
 40
0.8108108043670654
  0
CIRCLE
  5
47F
330
1F
100
AcDbEntity
  8
0
  6
Continuous
 62
     6
370
    13
100
AcDbCircle
 10
24.65831840095052
 20
-47.7641746230438
 30
0.0
 40
0.8108108043670654
  0
CIRCLE
  5
480
330
1F
100
AcDbEntity
  8
0
  6
Continuous
 62
     6
370
    13
100
AcDbCircle
 10
4.639694589393912
 20
-47.7641746230438
 30
0.0
 40
0.8108108043670654
  0
CIRCLE
  5
481
330
1F
100
AcDbEntity
  8
0
  6
Continuous
 62
     6
370
    13
100
AcDbCircle
 10
24.65831840095052
 20
-67.10407100650627
 30
0.0
 40
0.8108108043670654
  0
CIRCLE
  5
482
330
1F
100
AcDbEntity
  8
0
  6
Continuous
 62
     6
370
    13
100
AcDbCircle
 10
-75.34166430833284
 20
-67.10407100650627
 30
0.0
 40
0.8108108043670654
  0
CIRCLE
  5
483
330
1F
100
AcDbEntity
  8
0
  6
Continuous
 62
     6
370
    13
100
AcDbCircle
 10
283.6709984582121
 20
-67.25085230812692
 30
0.0
 40
0.8108108043670654
  0
CIRCLE
  5
484
330
1F
100
AcDbEntity
  8
0
  6
Continuous
 62
     6
370
    13
100
AcDbCircle
 10
283.6709984582121
 20
-46.49305152028683
 30
0.0
 40
0.8108108043670654
  0
CIRCLE
  5
485
330
1F
100
AcDbEntity
  8
0
  6
Continuous
 62
     6
370
    13
100
AcDbCircle
 10
263.6709821211698
 20
-46.49305152028683
 30
0.0
 40
0.8108108043670654
  0
CIRCLE
  5
486
330
1F
100
AcDbEntity
  8
0
  6
Continuous
 62
     6
370
    13
100
AcDbCircle
 10
183.6710157489288
 20
-67.25085230812692
 30
0.0
 40
0.8108108043670654
  0
CIRCLE
  5
487
330
1F
100
AcDbEntity
  8
0
  6
Continuous
 62
     6
370
    13
100
AcDbCircle
 10
298.9151224660745
 20
17.42738452155027
 30
0.0
 40
0.8108108043670654
  0
CIRCLE
  5
488
330
1F
100
AcDbEntity
  8
0
  6
Continuous
 62
     6
370
    13
100
AcDbCircle
 10
298.9151224660745
 20
100.4273855115243
 30
0.0
 40
0.8108108043670654
  0
CIRCLE
  5
489
330
1F
100
AcDbEntity
  8
0
  6
Continuous
 62
     6
370
    13
100
AcDbCircle
 10
331.2141350894526
 20
166.9271095000295
 30
0.0
 40
0.8108108043670654
  0
CIRCLE
  5
48A
330
1F
100
AcDbEntity
  8
0
  6
Continuous
 62
     6
370
    13
100
AcDbCircle
 10
331.2141350894526
 20
-23.07262505417748
 30
0.0
 40
0.8108108043670654
  0
CIRCLE
  5
48B
330
1F
100
AcDbEntity
  8
0
  6
Continuous
 62
     6
370
    13
100
AcDbCircle
 10
311.9435713437415
 20
166.9271095000295
 30
0.0
 40
0.8108108043670654
  0
CIRCLE
  5
48C
330
1F
100
AcDbEntity
  8
0
  6
Continuous
 62
     6
370
    13
100
AcDbCircle
 10
311.9435713437415
 20
58.92737264454627
 30
0.0
 40
0.8108108043670654
  0
CIRCLE
  5
48D
330
1F
100
AcDbEntity
  8
0
  6
Continuous
 62
     6
370
    13
100
AcDbCircle
 10
311.9435713437415
 20
-23.07262505417748
 30
0.0
 40
0.8108108043670654
  0
TEXT
  5
48F
330
1F
100
AcDbEntity
  8
0
 62
     2
100
AcDbText
 10
281.4733864349255
 20
-276.0741150025328
 30
0.0
 40
8.0
  1
Ａ－3
 41
1.089622641509434
  7
dcStyle0
 72
     5
 11
303.4733864349255
 21
-276.0741150025328
 31
0.0
100
AcDbText
  0
TEXT
  5
490
330
1F
100
AcDbEntity
  8
0
 62
     2
100
AcDbText
 10
314.2730193034804
 20
-276.2543424354135
 30
0.0
 40
8.0
  1
Ｓ＝1/2
 41
0.8842105263157894
  7
dcStyle0
 72
     5
 11
346.2730193034804
 21
-276.2543424354135
 31
0.0
100
AcDbText
  0
TEXT
  5
491
330
1F
100
AcDbEntity
  8
0
 62
     2
100
AcDbText
 10
354.9029347850592
 20
-276.3904714527544
 30
0.0
 40
8.0
  1
No.
 41
0.7819148936170214
  7
dcStyle0
 72
     5
 11
368.9029347850592
 21
-276.3904714527544
 31
0.0
100
AcDbText
  0
TEXT
  5
492
330
1F
100
AcDbEntity
  8
0
 62
     2
100
AcDbText
 10
-27.82003019750846
 20
-275.5978211847255
 30
0.0
 40
8.0
  1
（NA88010)
 41
0.75
  7
dcStyle0
 72
     5
 11
20.17996980249154
 21
-275.5978211847255
 31
0.0
100
AcDbText
  0
TEXT
  5
493
330
1F
100
AcDbEntity
  8
0
 62
     2
100
AcDbText
 10
-92.9711329314232
 20
-275.5978211847255
 30
0.0
 40
8.0
  1
内蔵用取付金具
 41
1.323170731707317
  7
dcStyle0
 72
     5
 11
-30.9711329314232
 21
-275.5978211847255
 31
0.0
100
AcDbText
  0
TEXT
  5
494
330
1F
100
AcDbEntity
  8
0
 62
     2
100
AcDbText
 10
-165.3591081004342
 20
-275.0677927168622
 30
0.0
 40
8.0
  1
サッシ加工図
 41
1.325
  7
dcStyle0
 72
     5
 11
-112.3591081004342
 21
-275.0677927168622
 31
0.0
100
AcDbText
  0
TEXT
  5
495
330
1F
100
AcDbEntity
  8
0
 62
     2
100
AcDbText
 10
-212.1175635723703
 20
-275.6954284614849
 30
0.0
 40
8.0
  1
各メーカー
 41
1.327586206896552
  7
dcStyle0
 72
     5
 11
-168.1175635723703
 21
-275.6954284614849
 31
0.0
100
AcDbText
  0
TEXT
  5
496
330
1F
100
AcDbEntity
  8
0
 62
     2
100
AcDbText
 10
-374.317168276646
 20
-275.4906751028793
 30
0.0
 40
8.0
  1
ヤヌス電工エンジン用
 41
1.319915254237288
  7
dcStyle0
 72
     5
 11
-285.317168276646
 21
-275.4906751028793
 31
0.0
100
AcDbText
  0
TEXT
  5
497
330
1F
100
AcDbEntity
  8
0
 62
     2
100
AcDbText
 10
370.7727846114285
 20
-276.0742882104073
 30
0.0
 40
8.0
  1
2
 41
0.6176470588235294
  7
dcStyle0
 72
     5
 11
374.7727846114285
 21
-276.0742882104073
 31
0.0
100
AcDbText
  0
TEXT
  5
498
330
1F
100
AcDbEntity
  8
0
 62
     2
100
AcDbText
 10
-206.9245687999792
 20
99.94141370373109
 30
0.0
 40
8.0
  1
85
 50
90.0
 41
0.6385135135135135
  7
dcStyle0
 72
     5
 11
-206.9245687999792
 21
108.9414137037311
 31
0.0
100
AcDbText
  0
TEXT
  5
499
330
1F
100
AcDbEntity
  8
0
 62
     2
100
AcDbText
 10
-274.826299184384
 20
113.4070640005375
 30
0.0
 40
8.0
  1
9
 50
14.99945342215428
 41
0.6562499999999991
  7
dcStyle0
 72
     5
 11
-270.9625860033004
 21
114.442303322782
 31
0.0
100
AcDbText
  0
TEXT
  5
49A
330
1F
100
AcDbEntity
  8
0
 62
     2
100
AcDbText
 10
-273.421199790726
 20
79.64820592317847
 30
0.0
 40
8.0
  1
Ф
 50
14.99998988759131
 41
1.4
  7
dcStyle0
 72
     5
 11
-265.6937928149717
 21
81.7187569201513
 31
0.0
100
AcDbText
  0
TEXT
  5
49B
330
1F
100
AcDbEntity
  8
0
 62
     2
100
AcDbText
 10
-263.8569084024202
 20
81.56663159680464
 30
0.0
 40
8.0
  1
20
 50
15.00036129474127
 41
0.6385135135135142
  7
dcStyle0
 72
     5
 11
-255.1635906545016
 21
83.89605782094722
 31
0.0
100
AcDbText
  0
TEXT
  5
49C
330
1F
100
AcDbEntity
  8
0
 62
     2
100
AcDbText
 10
-220.3716858542175
 20
57.4414717774489
 30
0.0
 40
8.0
  1
83
 50
90.0
 41
0.6385135135135135
  7
dcStyle0
 72
     5
 11
-220.3716858542175
 21
66.4414717774489
 31
0.0
100
AcDbText
  0
TEXT
  5
49D
330
1F
100
AcDbEntity
  8
0
 62
     2
100
AcDbText
 10
-188.0985554360814
 20
55.1914025121805
 30
0.0
 40
8.0
  1
170
 50
90.0
 41
0.6447368421052632
  7
dcStyle0
 72
     5
 11
-188.0985554360814
 21
69.1914025121805
 31
0.0
100
AcDbText
  0
TEXT
  5
49E
330
1F
100
AcDbEntity
  8
0
 62
     2
100
AcDbText
 10
-206.9245687999792
 20
14.94145561922051
 30
0.0
 40
8.0
  1
85
 50
90.0
 41
0.6385135135135135
  7
dcStyle0
 72
     5
 11
-206.9245687999792
 21
23.94145561922051
 31
0.0
100
AcDbText
  0
TEXT
  5
49F
330
1F
100
AcDbEntity
  8
0
 62
     2
100
AcDbText
 10
-248.3814281622326
 20
-46.76417133179348
 30
0.0
 40
8.0
  1
20
 41
0.6385135135135135
  7
dcStyle0
 72
     5
 11
-239.3814281622326
 21
-46.76417133179348
 31
0.0
100
AcDbText
  0
TEXT
  5
4A0
330
1F
100
AcDbEntity
  8
0
 62
     2
100
AcDbText
 10
-230.0011900072604
 20
-65.97985292528028
 30
0.0
 40
8.0
  1
1
 41
0.9545454545454547
  7
dcStyle0
 72
     5
 11
-226.0011900072604
 21
-65.97985292528028
 31
0.0
100
AcDbText
  0
TEXT
  5
4A1
330
1F
100
AcDbEntity
  8
0
 62
     2
100
AcDbText
 10
-288.8815614578707
 20
-66.48670865393797
 30
0.0
 40
8.0
  1
99
 41
0.65625
  7
dcStyle0
 72
     5
 11
-279.8815614578707
 21
-66.48670865393797
 31
0.0
100
AcDbText
  0
TEXT
  5
4A2
330
1F
100
AcDbEntity
  8
0
 62
     2
100
AcDbText
 10
-290.6315301015857
 20
-81.23602725240926
 30
0.0
 40
8.0
  1
100
 41
0.6447368421052632
  7
dcStyle0
 72
     5
 11
-276.6315301015857
 21
-81.23602725240926
 31
0.0
100
AcDbText
  0
TEXT
  5
4A3
330
1F
100
AcDbEntity
  8
0
 62
     2
100
AcDbText
 10
-317.9842701977614
 20
-156.2380556628923
 30
0.0
 40
14.0
  1
不二サッシ
 41
1.275862068965517
  7
dcStyle0
 72
     5
 11
-243.9842701977614
 21
-156.2380556628923
 31
0.0
100
AcDbText
  0
TEXT
  5
4A4
330
1F
100
AcDbEntity
  8
0
 62
     2
100
AcDbText
 10
70.97073885214922
 20
55.21161834552913
 30
0.0
 40
8.0
  1
170
 50
90.0
 41
0.6447368421052632
  7
dcStyle0
 72
     5
 11
70.97073885214922
 21
69.21161834552913
 31
0.0
100
AcDbText
  0
TEXT
  5
4A5
330
1F
100
AcDbEntity
  8
0
 62
     2
100
AcDbText
 10
54.71221055547358
 20
98.46162460020423
 30
0.0
 40
8.0
  1
88
 50
90.0
 41
0.6385135135135135
  7
dcStyle0
 72
     5
 11
54.71221055547358
 21
107.4616246002042
 31
0.0
100
AcDbText
  0
TEXT
  5
4A6
330
1F
100
AcDbEntity
  8
0
 62
     2
100
AcDbText
 10
-6.012020578804366
 20
110.7141764322005
 30
0.0
 40
8.0
  1
9
 50
14.99949928748762
 41
0.6562499999999996
  7
dcStyle0
 72
     5
 11
-2.148308226432256
 21
111.7494188473512
 31
0.0
100
AcDbText
  0
TEXT
  5
4A7
330
1F
100
AcDbEntity
  8
0
 62
     2
100
AcDbText
 10
-14.17127443340723
 20
74.68216295430466
 30
0.0
 40
8.0
  1
Ф
 50
14.9999669542468
 41
1.399999999999999
  7
dcStyle0
 72
     5
 11
-6.443866628889998
 21
76.7527108582871
 31
0.0
100
AcDbText
  0
TEXT
  5
4A8
330
1F
100
AcDbEntity
  8
0
 62
     2
100
AcDbText
 10
-4.461983310189682
 20
75.92238082346012
 30
0.0
 40
8.0
  1
20
 50
14.99963052575069
 41
0.6385135135135137
  7
dcStyle0
 72
     5
 11
4.231364147280882
 21
78.25169617001372
 31
0.0
100
AcDbText
  0
TEXT
  5
4A9
330
1F
100
AcDbEntity
  8
0
 62
     2
100
AcDbText
 10
40.36852005502442
 20
54.48184408243105
 30
0.0
 40
8.0
  1
83
 50
90.0
 41
0.6385135135135135
  7
dcStyle0
 72
     5
 11
40.36852005502442
 21
63.48184408243105
 31
0.0
100
AcDbText
  0
TEXT
  5
4AA
330
1F
100
AcDbEntity
  8
0
 62
     2
100
AcDbText
 10
54.71226004343771
 20
13.48180811709608
 30
0.0
 40
8.0
  1
82
 50
90.0
 41
0.6385135135135135
  7
dcStyle0
 72
     5
 11
54.71226004343771
 21
22.48180811709608
 31
0.0
100
AcDbText
  0
TEXT
  5
4AB
330
1F
100
AcDbEntity
  8
0
 62
     2
100
AcDbText
 10
10.39900487934938
 20
-46.76417133179348
 30
0.0
 40
8.0
  1
20
 41
0.6385135135135135
  7
dcStyle0
 72
     5
 11
19.39900487934938
 21
-46.76417133179348
 31
0.0
100
AcDbText
  0
TEXT
  5
4AC
330
1F
100
AcDbEntity
  8
0
 62
     2
100
AcDbText
 10
-31.84169434681826
 20
-66.10411720322008
 30
0.0
 40
8.0
  1
100
 41
0.6447368421052632
  7
dcStyle0
 72
     5
 11
-17.84169434681826
 21
-66.10411720322008
 31
0.0
100
AcDbText
  0
TEXT
  5
4AD
330
1F
100
AcDbEntity
  8
0
 62
     2
100
AcDbText
 10
-44.14821280370234
 20
-158.7353667969728
 30
0.0
 40
14.0
  1
LIXIL
 41
0.8478260869565218
  7
dcStyle0
 72
     5
 11
-5.148212803702336
 21
-158.7353667969728
 31
0.0
100
AcDbText
  0
TEXT
  5
4AE
330
1F
100
AcDbEntity
  8
0
 62
     2
100
AcDbText
 10
330.2141317982023
 20
65.42724557378097
 30
0.0
 40
8.0
  1
190
 50
90.0002181117648
 41
0.6447368421052633
  7
dcStyle0
 72
     5
 11
330.2140785034442
 21
79.42724557367953
 31
0.0
100
AcDbText
  0
TEXT
  5
4AF
330
1F
100
AcDbEntity
  8
0
 62
     2
100
AcDbText
 10
310.9435680524912
 20
106.4272320511518
 30
0.0
 40
8.0
  1
108
 50
90.0002181117648
 41
0.6447368421052633
  7
dcStyle0
 72
     5
 11
310.9435147577331
 21
120.4272320510504
 31
0.0
100
AcDbText
  0
TEXT
  5
4B0
330
1F
100
AcDbEntity
  8
0
 62
     2
100
AcDbText
 10
255.2398166476341
 20
74.02887233977526
 30
0.0
 40
8.0
  1
20
 50
14.99987797017577
 41
0.6385135135135154
  7
dcStyle0
 72
     5
 11
263.933154045363
 21
76.3582252304401
 31
0.0
100
AcDbText
  0
TEXT
  5
4B1
330
1F
100
AcDbEntity
  8
0
 62
     2
100
AcDbText
 10
244.8417520396033
 20
72.30349921423476
 30
0.0
 40
8.0
  1
Ф
 50
14.99992108776331
 41
1.400000000000003
  7
dcStyle0
 72
     5
 11
252.5691615016355
 21
74.37404093226314
 31
0.0
100
AcDbText
  0
TEXT
  5
4B2
330
1F
100
AcDbEntity
  8
0
 62
     2
100
AcDbText
 10
253.8028841210471
 20
109.8889151423064
 30
0.0
 40
8.0
  1
9
 50
15.00009226410457
 41
0.6562500000000034
  7
dcStyle0
 72
     5
 11
257.6665857590803
 21
110.9241975444845
 31
0.0
100
AcDbText
  0
TEXT
  5
4B3
330
1F
100
AcDbEntity
  8
0
 62
     2
100
AcDbText
 10
297.9151191748242
 20
54.67739577270549
 30
0.0
 40
8.0
  1
83
 50
90.0
 41
0.6385135135135135
  7
dcStyle0
 72
     5
 11
297.9151191748242
 21
63.67739577270549
 31
0.0
100
AcDbText
  0
TEXT
  5
4B4
330
1F
100
AcDbEntity
  8
0
 62
     2
100
AcDbText
 10
310.9435680524912
 20
13.67738455135259
 30
0.0
 40
8.0
  1
82
 50
90.0
 41
0.6385135135135135
  7
dcStyle0
 72
     5
 11
310.9435680524912
 21
22.67738455135259
 31
0.0
100
AcDbText
  0
TEXT
  5
4B5
330
1F
100
AcDbEntity
  8
0
 62
     2
100
AcDbText
 10
269.4209886738681
 20
-45.4930482290365
 30
0.0
 40
8.0
  1
20
 41
0.6385135135135135
  7
dcStyle0
 72
     5
 11
278.4209886738681
 21
-45.4930482290365
 31
0.0
100
AcDbText
  0
TEXT
  5
4B6
330
1F
100
AcDbEntity
  8
0
 62
     2
100
AcDbText
 10
227.1709362224792
 20
-66.2508490168766
 30
0.0
 40
8.0
  1
100
 41
0.6447368421052632
  7
dcStyle0
 72
     5
 11
241.1709362224792
 21
-66.2508490168766
 31
0.0
100
AcDbText
  0
TEXT
  5
4B7
330
1F
100
AcDbEntity
  8
0
 62
     2
100
AcDbText
 10
228.4412922617921
 20
-157.5827797403072
 30
0.0
 40
14.0
  1
LIXIL
 41
0.8478260869565218
  7
dcStyle0
 72
     5
 11
267.4412922617921
 21
-157.5827797403072
 31
0.0
100
AcDbText
  0
VIEWPORT
  5
74
330
1B
100
AcDbEntity
 67
     1
  8
0
100
AcDbViewport
 10
-5.733601872525128
 20
-0.1453871328810692
 30
0.0
 40
2452.764101253485
 41
1670.150445088488
 68
     1
 69
     1
 12
-5.733601872525128
 22
-0.1453871328810692
 13
0.0
 23
0.0
 14
0.5
 24
0.5
 15
0.0
 25
0.0
 16
0.0
 26
0.0
 36
1.0
 17
0.0
 27
0.0
 37
0.0
 42
50.0
 43
0.0
 44
0.0
 45
1670.150445088488
 50
0.0
 51
0.0
 72
   100
 90
   557152
  1

281
     0
 71
     1
 74
     0
110
0.0
120
0.0
130
0.0
111
1.0
121
0.0
131
0.0
112
0.0
122
1.0
132
0.0
 79
     0
146
0.0
  0
ENDSEC
  0
SECTION
  2
OBJECTS
  0
DICTIONARY
  5
C
330
0
100
AcDbDictionary
281
     1
  3
ACAD_GROUP
350
D
  3
ACAD_LAYOUT
350
1A
  3
ACAD_MATERIAL
350
3B
  3
ACAD_MLEADERSTYLE
350
4DC
  3
ACAD_MLINESTYLE
350
17
  3
ACAD_PLOTSETTINGS
350
19
  3
ACAD_PLOTSTYLENAME
350
E
  3
ACAD_SCALELIST
350
4B8
  3
ACAD_VISUALSTYLE
350
2A
  3
AcDbVariableDictionary
350
4DA
  0
DICTIONARY
  5
D
102
{ACAD_REACTORS
330
C
102
}
330
C
100
AcDbDictionary
281
     1
  0
DICTIONARY
  5
1A
102
{ACAD_REACTORS
330
C
102
}
330
C
100
AcDbDictionary
281
     1
  3
Layout1
350
1E
  3
Layout2
350
26
  3
Model
350
22
  0
DICTIONARY
  5
3B
102
{ACAD_REACTORS
330
C
102
}
330
C
100
AcDbDictionary
281
     1
  3
ByBlock
350
3D
  3
ByLayer
350
3C
  3
Global
350
3E
  0
DICTIONARY
  5
4DC
102
{ACAD_REACTORS
330
C
102
}
330
C
100
AcDbDictionary
281
     1
  0
DICTIONARY
  5
17
102
{ACAD_REACTORS
330
C
102
}
330
C
100
AcDbDictionary
281
     1
  3
Standard
350
18
  0
DICTIONARY
  5
19
102
{ACAD_REACTORS
330
C
102
}
330
C
100
AcDbDictionary
281
     1
  0
ACDBDICTIONARYWDFLT
  5
E
102
{ACAD_REACTORS
330
C
102
}
330
C
100
AcDbDictionary
281
     1
  3
Normal
350
F
100
AcDbDictionaryWithDefault
340
F
  0
DICTIONARY
  5
4B8
102
{ACAD_REACTORS
330
C
102
}
330
C
100
AcDbDictionary
281
     1
  3
A0
350
4B9
  3
A1
350
4BA
  3
A2
350
4BB
  3
A3
350
4BC
  3
A4
350
4BD
  3
A5
350
4BE
  3
A6
350
4BF
  3
A7
350
4C0
  3
A8
350
4C1
  3
A9
350
4C2
  3
B0
350
4C3
  3
B1
350
4C4
  3
B2
350
4C5
  3
B3
350
4C6
  3
B4
350
4C7
  3
B5
350
4C8
  3
B6
350
4C9
  3
B7
350
4CA
  3
B8
350
4CB
  3
B9
350
4CC
  3
C0
350
4CD
  3
C1
350
4CE
  3
C2
350
4CF
  3
C3
350
4D0
  3
C4
350
4D1
  3
C5
350
4D2
  3
C6
350
4D3
  3
C7
350
4D4
  3
C8
350
4D5
  3
C9
350
4D6
  3
D0
350
4D7
  3
D1
350
4D8
  3
D2
350
4D9
  0
DICTIONARY
  5
2A
102
{ACAD_REACTORS
330
C
102
}
330
C
100
AcDbDictionary
281
     1
  3
2dWireframe
350
2F
  3
3D Hidden
350
31
  3
3dWireframe
350
30
  3
Basic
350
32
  3
Brighten
350
36
  3
ColorChange
350
3A
  3
Conceptual
350
34
  3
Dim
350
35
  3
Facepattern
350
39
  3
Flat
350
2B
  3
FlatWithEdges
350
2C
  3
Gouraud
350
2D
  3
GouraudWithEdges
350
2E
  3
Linepattern
350
38
  3
Realistic
350
33
  3
Thicken
350
37
  0
DICTIONARY
  5
4DA
102
{ACAD_REACTORS
330
C
102
}
330
C
100
AcDbDictionary
281
     1
  3
CANNOSCALE
350
4DD
  3
DIMASSOC
350
4DE
  3
HIDETEXT
350
4DF
  0
LAYOUT
  5
1E
102
{ACAD_REACTORS
330
1A
102
}
330
1A
100
AcDbPlotSettings
  1

  2
none_device
  4

  6

 40
0.0
 41
0.0
 42
0.0
 43
0.0
 44
0.0
 45
0.0
 46
0.0
 47
0.0
 48
0.0
 49
0.0
140
0.0
141
0.0
142
1.0
143
1.0
 70
   688
 72
     0
 73
     0
 74
     5
  7

 75
    16
147
1.0
148
0.0
149
0.0
100
AcDbLayout
  1
Layout1
 70
     0
 71
     1
 10
0.0
 20
0.0
 11
12.0
 21
9.0
 12
0.0
 22
0.0
 32
0.0
 14
1.000000000000000E+20
 24
1.000000000000000E+20
 34
1.000000000000000E+20
 15
-1.000000000000000E+20
 25
-1.000000000000000E+20
 35
-1.000000000000000E+20
146
0.0
 13
0.0
 23
0.0
 33
0.0
 16
1.0
 26
0.0
 36
0.0
 17
0.0
 27
1.0
 37
0.0
 76
     0
330
1B
331
74
  0
LAYOUT
  5
26
102
{ACAD_REACTORS
330
1A
102
}
330
1A
100
AcDbPlotSettings
  1

  2
none_device
  4

  6

 40
0.0
 41
0.0
 42
0.0
 43
0.0
 44
0.0
 45
0.0
 46
0.0
 47
0.0
 48
0.0
 49
0.0
140
0.0
141
0.0
142
1.0
143
1.0
 70
   688
 72
     0
 73
     0
 74
     5
  7

 75
    16
147
1.0
148
0.0
149
0.0
100
AcDbLayout
  1
Layout2
 70
     1
 71
     2
 10
0.0
 20
0.0
 11
0.0
 21
0.0
 12
0.0
 22
0.0
 32
0.0
 14
0.0
 24
0.0
 34
0.0
 15
0.0
 25
0.0
 35
0.0
146
0.0
 13
0.0
 23
0.0
 33
0.0
 16
1.0
 26
0.0
 36
0.0
 17
0.0
 27
1.0
 37
0.0
 76
     0
330
23
  0
LAYOUT
  5
22
102
{ACAD_REACTORS
330
1A
102
}
330
1A
100
AcDbPlotSettings
  1

  2
none_device
  4

  6

 40
0.0
 41
0.0
 42
0.0
 43
0.0
 44
0.0
 45
0.0
 46
0.0
 47
0.0
 48
0.0
 49
0.0
140
0.0
141
0.0
142
1.0
143
1.0
 70
  1712
 72
     0
 73
     0
 74
     0
  7

 75
     0
147
1.0
148
0.0
149
0.0
100
AcDbLayout
  1
Model
 70
     1
 71
     0
 10
-420.0
 20
-297.0
 11
420.0
 21
297.0
 12
0.0
 22
0.0
 32
0.0
 14
-1232.115652499268
 24
-835.2206096771251
 34
0.0
 15
1220.648448754217
 25
834.929835411363
 35
0.0
146
0.0
 13
0.0
 23
0.0
 33
0.0
 16
1.0
 26
0.0
 36
0.0
 17
0.0
 27
1.0
 37
0.0
 76
     0
330
1F
331
29
  0
MATERIAL
  5
3D
102
{ACAD_REACTORS
330
3B
102
}
102
{ACAD_XDICTIONARY
360
502
102
}
330
3B
100
AcDbMaterial
  1
ByBlock
  0
MATERIAL
  5
3C
102
{ACAD_REACTORS
330
3B
102
}
102
{ACAD_XDICTIONARY
360
500
102
}
330
3B
100
AcDbMaterial
  1
ByLayer
  0
MATERIAL
  5
3E
102
{ACAD_REACTORS
330
3B
102
}
102
{ACAD_XDICTIONARY
360
504
102
}
330
3B
100
AcDbMaterial
  1
Global
  0
MLINESTYLE
  5
18
102
{ACAD_REACTORS
330
17
102
}
330
17
100
AcDbMlineStyle
  2
Standard
 70
     0
  3

 62
   256
 51
90.0
 52
90.0
 71
     2
 49
0.5
 62
   256
  6
BYLAYER
 49
-0.5
 62
   256
  6
BYLAYER
  0
ACDBPLACEHOLDER
  5
F
102
{ACAD_REACTORS
330
E
102
}
330
E
  0
SCALE
  5
4B9
102
{ACAD_REACTORS
330
4B8
102
}
330
4B8
100
AcDbScale
 70
     0
300
1:1
140
1.0
141
1.0
290
     1
  0
SCALE
  5
4BA
102
{ACAD_REACTORS
330
4B8
102
}
330
4B8
100
AcDbScale
 70
     0
300
1:2
140
1.0
141
2.0
290
     0
  0
SCALE
  5
4BB
102
{ACAD_REACTORS
330
4B8
102
}
330
4B8
100
AcDbScale
 70
     0
300
1:4
140
1.0
141
4.0
290
     0
  0
SCALE
  5
4BC
102
{ACAD_REACTORS
330
4B8
102
}
330
4B8
100
AcDbScale
 70
     0
300
1:5
140
1.0
141
5.0
290
     0
  0
SCALE
  5
4BD
102
{ACAD_REACTORS
330
4B8
102
}
330
4B8
100
AcDbScale
 70
     0
300
1:8
140
1.0
141
8.0
290
     0
  0
SCALE
  5
4BE
102
{ACAD_REACTORS
330
4B8
102
}
330
4B8
100
AcDbScale
 70
     0
300
1:10
140
1.0
141
10.0
290
     0
  0
SCALE
  5
4BF
102
{ACAD_REACTORS
330
4B8
102
}
330
4B8
100
AcDbScale
 70
     0
300
1:16
140
1.0
141
16.0
290
     0
  0
SCALE
  5
4C0
102
{ACAD_REACTORS
330
4B8
102
}
330
4B8
100
AcDbScale
 70
     0
300
1:20
140
1.0
141
20.0
290
     0
  0
SCALE
  5
4C1
102
{ACAD_REACTORS
330
4B8
102
}
330
4B8
100
AcDbScale
 70
     0
300
1:30
140
1.0
141
30.0
290
     0
  0
SCALE
  5
4C2
102
{ACAD_REACTORS
330
4B8
102
}
330
4B8
100
AcDbScale
 70
     0
300
1:40
140
1.0
141
40.0
290
     0
  0
SCALE
  5
4C3
102
{ACAD_REACTORS
330
4B8
102
}
330
4B8
100
AcDbScale
 70
     0
300
1:50
140
1.0
141
50.0
290
     0
  0
SCALE
  5
4C4
102
{ACAD_REACTORS
330
4B8
102
}
330
4B8
100
AcDbScale
 70
     0
300
1:100
140
1.0
141
100.0
290
     0
  0
SCALE
  5
4C5
102
{ACAD_REACTORS
330
4B8
102
}
330
4B8
100
AcDbScale
 70
     0
300
2:1
140
2.0
141
1.0
290
     0
  0
SCALE
  5
4C6
102
{ACAD_REACTORS
330
4B8
102
}
330
4B8
100
AcDbScale
 70
     0
300
4:1
140
4.0
141
1.0
290
     0
  0
SCALE
  5
4C7
102
{ACAD_REACTORS
330
4B8
102
}
330
4B8
100
AcDbScale
 70
     0
300
8:1
140
8.0
141
1.0
290
     0
  0
SCALE
  5
4C8
102
{ACAD_REACTORS
330
4B8
102
}
330
4B8
100
AcDbScale
 70
     0
300
10:1
140
10.0
141
1.0
290
     0
  0
SCALE
  5
4C9
102
{ACAD_REACTORS
330
4B8
102
}
330
4B8
100
AcDbScale
 70
     0
300
100:1
140
100.0
141
1.0
290
     0
  0
SCALE
  5
4CA
102
{ACAD_REACTORS
330
4B8
102
}
330
4B8
100
AcDbScale
 70
     0
300
1/128" = 1'-0"
140
0.0078125
141
12.0
290
     0
  0
SCALE
  5
4CB
102
{ACAD_REACTORS
330
4B8
102
}
330
4B8
100
AcDbScale
 70
     0
300
1/64" = 1'-0"
140
0.015625
141
12.0
290
     0
  0
SCALE
  5
4CC
102
{ACAD_REACTORS
330
4B8
102
}
330
4B8
100
AcDbScale
 70
     0
300
1/32" = 1'-0"
140
0.03125
141
12.0
290
     0
  0
SCALE
  5
4CD
102
{ACAD_REACTORS
330
4B8
102
}
330
4B8
100
AcDbScale
 70
     0
300
1/16" = 1'-0"
140
0.0625
141
12.0
290
     0
  0
SCALE
  5
4CE
102
{ACAD_REACTORS
330
4B8
102
}
330
4B8
100
AcDbScale
 70
     0
300
3/32" = 1'-0"
140
0.09375
141
12.0
290
     0
  0
SCALE
  5
4CF
102
{ACAD_REACTORS
330
4B8
102
}
330
4B8
100
AcDbScale
 70
     0
300
1/8" = 1'-0"
140
0.125
141
12.0
290
     0
  0
SCALE
  5
4D0
102
{ACAD_REACTORS
330
4B8
102
}
330
4B8
100
AcDbScale
 70
     0
300
3/16" = 1'-0"
140
0.1875
141
12.0
290
     0
  0
SCALE
  5
4D1
102
{ACAD_REACTORS
330
4B8
102
}
330
4B8
100
AcDbScale
 70
     0
300
1/4" = 1'-0"
140
0.25
141
12.0
290
     0
  0
SCALE
  5
4D2
102
{ACAD_REACTORS
330
4B8
102
}
330
4B8
100
AcDbScale
 70
     0
300
3/8" = 1'-0"
140
0.375
141
12.0
290
     0
  0
SCALE
  5
4D3
102
{ACAD_REACTORS
330
4B8
102
}
330
4B8
100
AcDbScale
 70
     0
300
1/2" = 1'-0"
140
0.5
141
12.0
290
     0
  0
SCALE
  5
4D4
102
{ACAD_REACTORS
330
4B8
102
}
330
4B8
100
AcDbScale
 70
     0
300
3/4" = 1'-0"
140
0.75
141
12.0
290
     0
  0
SCALE
  5
4D5
102
{ACAD_REACTORS
330
4B8
102
}
330
4B8
100
AcDbScale
 70
     0
300
1" = 1'-0"
140
1.0
141
12.0
290
     0
  0
SCALE
  5
4D6
102
{ACAD_REACTORS
330
4B8
102
}
330
4B8
100
AcDbScale
 70
     0
300
1-1/2" = 1'-0"
140
1.5
141
12.0
290
     0
  0
SCALE
  5
4D7
102
{ACAD_REACTORS
330
4B8
102
}
330
4B8
100
AcDbScale
 70
     0
300
3" = 1'-0"
140
3.0
141
12.0
290
     0
  0
SCALE
  5
4D8
102
{ACAD_REACTORS
330
4B8
102
}
330
4B8
100
AcDbScale
 70
     0
300
6" = 1'-0"
140
6.0
141
12.0
290
     0
  0
SCALE
  5
4D9
102
{ACAD_REACTORS
330
4B8
102
}
330
4B8
100
AcDbScale
 70
     0
300
1'-0" = 1'-0"
140
12.0
141
12.0
290
     0
  0
VISUALSTYLE
  5
2F
102
{ACAD_REACTORS
330
2A
102
}
102
{ACAD_XDICTIONARY
360
4E8
102
}
330
2A
100
AcDbVisualStyle
  2
2dWireframe
 70
     4
 71
     0
 72
     2
 73
     0
 90
        0
 40
-0.6
 41
-30.0
 62
     5
 63
     7
 74
     1
 91
        4
 64
     7
 65
   257
 75
     1
175
     1
 42
1.0
 92
        0
 66
   257
 43
1.0
 76
     1
 77
     6
 78
     2
 67
     7
 79
     5
170
     0
171
     0
290
     0
174
     0
 93
        1
 44
0.0
173
     0
291
     0
 45
0.0
1001
ACAD
1000
AcDbSavedByObjectVersion
1070
     0
  0
VISUALSTYLE
  5
31
102
{ACAD_REACTORS
330
2A
102
}
102
{ACAD_XDICTIONARY
360
4EC
102
}
330
2A
100
AcDbVisualStyle
  2
3D Hidden
 70
     6
 71
     1
 72
     2
 73
     2
 90
        0
 40
-0.6
 41
-30.0
 62
     5
 63
     7
 74
     2
 91
        2
 64
     7
 65
   257
 75
     2
175
     1
 42
40.0
 92
        0
 66
   257
 43
1.0
 76
     1
 77
     6
 78
     2
 67
     7
 79
     3
170
     0
171
     0
290
     0
174
     0
 93
        1
 44
0.0
173
     0
291
     0
 45
0.0
1001
ACAD
1000
AcDbSavedByObjectVersion
1070
     0
  0
VISUALSTYLE
  5
30
102
{ACAD_REACTORS
330
2A
102
}
102
{ACAD_XDICTIONARY
360
4EA
102
}
330
2A
100
AcDbVisualStyle
  2
3dWireframe
 70
     5
 71
     0
 72
     2
 73
     0
 90
        0
 40
-0.6
 41
-30.0
 62
     5
 63
     7
 74
     1
 91
        4
 64
     7
 65
   257
 75
     1
175
     1
 42
1.0
 92
        0
 66
   257
 43
1.0
 76
     1
 77
     6
 78
     2
 67
     7
 79
     5
170
     0
171
     0
290
     0
174
     0
 93
        1
 44
0.0
173
     0
291
     0
 45
0.0
1001
ACAD
1000
AcDbSavedByObjectVersion
1070
     0
  0
VISUALSTYLE
  5
32
102
{ACAD_REACTORS
330
2A
102
}
102
{ACAD_XDICTIONARY
360
4EE
102
}
330
2A
100
AcDbVisualStyle
  2
Basic
 70
     7
 71
     1
 72
     0
 73
     1
 90
        0
 40
-0.6
 41
-30.0
 62
     5
 63
     7
 74
     0
 91
        4
 64
     7
 65
   257
 75
     1
175
     1
 42
1.0
 92
        8
 66
     7
 43
1.0
 76
     1
 77
     6
 78
     2
 67
     7
 79
     5
170
     0
171
     0
290
     0
174
     0
 93
        1
 44
0.0
173
     0
291
     1
 45
0.0
1001
ACAD
1000
AcDbSavedByObjectVersion
1070
     0
  0
VISUALSTYLE
  5
36
102
{ACAD_REACTORS
330
2A
102
}
102
{ACAD_XDICTIONARY
360
4F6
102
}
330
2A
100
AcDbVisualStyle
  2
Brighten
 70
    12
 71
     2
 72
     2
 73
     0
 90
        0
 40
-0.6
 41
-30.0
 62
     5
 63
     7
 74
     1
 91
        4
 64
     7
 65
   257
 75
     1
175
     1
 42
1.0
 92
        8
 66
     7
 43
1.0
 76
     1
 77
     6
 78
     2
 67
     7
 79
     5
170
     0
171
     0
290
     0
174
     0
 93
        1
 44
50.0
173
     0
291
     1
 45
0.0
1001
ACAD
1000
AcDbSavedByObjectVersion
1070
     0
  0
VISUALSTYLE
  5
3A
102
{ACAD_REACTORS
330
2A
102
}
102
{ACAD_XDICTIONARY
360
4FE
102
}
330
2A
100
AcDbVisualStyle
  2
ColorChange
 70
    16
 71
     2
 72
     2
 73
     3
 90
        0
 40
-0.6
 41
-30.0
 62
     5
 63
     8
 74
     1
 91
        4
 64
     7
 65
   257
 75
     1
175
     1
 42
1.0
 92
        8
 66
     8
 43
1.0
 76
     1
 77
     6
 78
     2
 67
     7
 79
     5
170
     0
171
     0
290
     0
174
     0
 93
        1
 44
0.0
173
     0
291
     1
 45
0.0
1001
ACAD
1000
AcDbSavedByObjectVersion
1070
     0
  0
VISUALSTYLE
  5
34
102
{ACAD_REACTORS
330
2A
102
}
102
{ACAD_XDICTIONARY
360
4F2
102
}
330
2A
100
AcDbVisualStyle
  2
Conceptual
 70
     9
 71
     3
 72
     2
 73
     0
 90
        0
 40
-0.6
 41
-30.0
 62
     5
 63
     7
 74
     2
 91
        2
 64
     7
 65
   257
 75
     1
175
     1
 42
40.0
 92
        8
 66
     7
 43
1.0
 76
     1
 77
     6
 78
     2
 67
     7
 79
     3
170
     0
171
     0
290
     0
174
     0
 93
        1
 44
0.0
173
     0
291
     0
 45
0.0
1001
ACAD
1000
AcDbSavedByObjectVersion
1070
     0
  0
VISUALSTYLE
  5
35
102
{ACAD_REACTORS
330
2A
102
}
102
{ACAD_XDICTIONARY
360
4F4
102
}
330
2A
100
AcDbVisualStyle
  2
Dim
 70
    11
 71
     2
 72
     2
 73
     0
 90
        0
 40
-0.6
 41
-30.0
 62
     5
 63
     7
 74
     1
 91
        4
 64
     7
 65
   257
 75
     1
175
     1
 42
1.0
 92
        8
 66
     7
 43
1.0
 76
     1
 77
     6
 78
     2
 67
     7
 79
     5
170
     0
171
     0
290
     0
174
     0
 93
        1
 44
-50.0
173
     0
291
     1
 45
0.0
1001
ACAD
1000
AcDbSavedByObjectVersion
1070
     0
  0
VISUALSTYLE
  5
39
102
{ACAD_REACTORS
330
2A
102
}
102
{ACAD_XDICTIONARY
360
4FC
102
}
330
2A
100
AcDbVisualStyle
  2
Facepattern
 70
    15
 71
     2
 72
     2
 73
     0
 90
        0
 40
-0.6
 41
-30.0
 62
     5
 63
     7
 74
     1
 91
        4
 64
     7
 65
   257
 75
     1
175
     1
 42
1.0
 92
        8
 66
     7
 43
1.0
 76
     1
 77
     6
 78
     2
 67
     7
 79
     5
170
     0
171
     0
290
     0
174
     0
 93
        1
 44
0.0
173
     0
291
     1
 45
0.0
1001
ACAD
1000
AcDbSavedByObjectVersion
1070
     0
  0
VISUALSTYLE
  5
2B
102
{ACAD_REACTORS
330
2A
102
}
102
{ACAD_XDICTIONARY
360
4E0
102
}
330
2A
100
AcDbVisualStyle
  2
Flat
 70
     0
 71
     2
 72
     1
 73
     1
 90
        2
 40
-0.6
 41
30.0
 62
     5
 63
     7
 74
     0
 91
        4
 64
     7
 65
   257
 75
     1
175
     1
 42
1.0
 92
        8
 66
     7
 43
1.0
 76
     1
 77
     6
 78
     2
 67
     7
 79
     5
170
     0
171
     0
290
     0
174
     0
 93
       13
 44
0.0
173
     0
291
     1
 45
0.0
1001
ACAD
1000
AcDbSavedByObjectVersion
1070
     0
  0
VISUALSTYLE
  5
2C
102
{ACAD_REACTORS
330
2A
102
}
102
{ACAD_XDICTIONARY
360
4E2
102
}
330
2A
100
AcDbVisualStyle
  2
FlatWithEdges
 70
     1
 71
     2
 72
     1
 73
     1
 90
        2
 40
-0.6
 41
30.0
 62
     5
 63
     7
 74
     1
 91
        4
 64
     7
 65
   257
 75
     1
175
     1
 42
1.0
 92
        0
 66
   257
 43
1.0
 76
     1
 77
     6
 78
     2
 67
     7
 79
     5
170
     0
171
     0
290
     0
174
     0
 93
       13
 44
0.0
173
     0
291
     1
 45
0.0
1001
ACAD
1000
AcDbSavedByObjectVersion
1070
     0
  0
VISUALSTYLE
  5
2D
102
{ACAD_REACTORS
330
2A
102
}
102
{ACAD_XDICTIONARY
360
4E4
102
}
330
2A
100
AcDbVisualStyle
  2
Gouraud
 70
     2
 71
     2
 72
     2
 73
     1
 90
        2
 40
-0.6
 41
30.0
 62
     5
 63
     7
 74
     0
 91
        4
 64
     7
 65
   257
 75
     1
175
     1
 42
1.0
 92
        0
 66
     7
 43
1.0
 76
     1
 77
     6
 78
     2
 67
     7
 79
     5
170
     0
171
     0
290
     0
174
     0
 93
       13
 44
0.0
173
     0
291
     1
 45
0.0
1001
ACAD
1000
AcDbSavedByObjectVersion
1070
     0
  0
VISUALSTYLE
  5
2E
102
{ACAD_REACTORS
330
2A
102
}
102
{ACAD_XDICTIONARY
360
4E6
102
}
330
2A
100
AcDbVisualStyle
  2
GouraudWithEdges
 70
     3
 71
     2
 72
     2
 73
     1
 90
        2
 40
-0.6
 41
30.0
 62
     5
 63
     7
 74
     1
 91
        4
 64
     7
 65
   257
 75
     1
175
     1
 42
1.0
 92
        0
 66
   257
 43
1.0
 76
     1
 77
     6
 78
     2
 67
     7
 79
     5
170
     0
171
     0
290
     0
174
     0
 93
       13
 44
0.0
173
     0
291
     1
 45
0.0
1001
ACAD
1000
AcDbSavedByObjectVersion
1070
     0
  0
VISUALSTYLE
  5
38
102
{ACAD_REACTORS
330
2A
102
}
102
{ACAD_XDICTIONARY
360
4FA
102
}
330
2A
100
AcDbVisualStyle
  2
Linepattern
 70
    14
 71
     2
 72
     2
 73
     0
 90
        0
 40
-0.6
 41
-30.0
 62
     5
 63
     7
 74
     1
 91
        4
 64
     7
 65
   257
 75
     7
175
     7
 42
1.0
 92
        8
 66
     7
 43
1.0
 76
     1
 77
     6
 78
     2
 67
     7
 79
     5
170
     0
171
     0
290
     0
174
     0
 93
        1
 44
0.0
173
     0
291
     1
 45
0.0
1001
ACAD
1000
AcDbSavedByObjectVersion
1070
     0
  0
VISUALSTYLE
  5
33
102
{ACAD_REACTORS
330
2A
102
}
102
{ACAD_XDICTIONARY
360
4F0
102
}
330
2A
100
AcDbVisualStyle
  2
Realistic
 70
     8
 71
     2
 72
     2
 73
     0
 90
        0
 40
-0.6
 41
-30.0
 62
     5
 63
     7
 74
     1
 91
        0
 64
     7
 65
   257
 75
     1
175
     1
 42
1.0
 92
        8
 66
     8
 43
1.0
 76
     1
 77
     6
 78
     2
 67
     7
 79
     5
170
     0
171
     0
290
     0
174
     0
 93
       13
 44
0.0
173
     0
291
     0
 45
0.0
1001
ACAD
1000
AcDbSavedByObjectVersion
1070
     0
  0
VISUALSTYLE
  5
37
102
{ACAD_REACTORS
330
2A
102
}
102
{ACAD_XDICTIONARY
360
4F8
102
}
330
2A
100
AcDbVisualStyle
  2
Thicken
 70
    13
 71
     2
 72
     2
 73
     0
 90
        0
 40
-0.6
 41
-30.0
 62
     5
 63
     7
 74
     1
 91
        4
 64
     7
 65
   257
 75
     1
175
     1
 42
1.0
 92
       12
 66
     7
 43
1.0
 76
     1
 77
     6
 78
     2
 67
     7
 79
     5
170
     0
171
     0
290
     0
174
     0
 93
        1
 44
0.0
173
     0
291
     1
 45
0.0
1001
ACAD
1000
AcDbSavedByObjectVersion
1070
     0
  0
DICTIONARYVAR
  5
4DD
102
{ACAD_REACTORS
330
4DA
102
}
330
4DA
100
DictionaryVariables
280
     0
  1
1:1
  0
DICTIONARYVAR
  5
4DE
102
{ACAD_REACTORS
330
4DA
102
}
330
4DA
100
DictionaryVariables
280
     0
  1
2
  0
DICTIONARYVAR
  5
4DF
102
{ACAD_REACTORS
330
4DA
102
}
330
4DA
100
DictionaryVariables
280
     0
  1
1
  0
DICTIONARY
  5
502
330
3D
100
AcDbDictionary
280
     1
281
     1
  3
ACAD_XREC_ROUNDTRIP
360
503
  0
DICTIONARY
  5
500
330
3C
100
AcDbDictionary
280
     1
281
     1
  3
ACAD_XREC_ROUNDTRIP
360
501
  0
DICTIONARY
  5
504
330
3E
100
AcDbDictionary
280
     1
281
     1
  3
ACAD_XREC_ROUNDTRIP
360
505
  0
DICTIONARY
  5
4E8
330
2F
100
AcDbDictionary
280
     1
281
     1
  3
ACAD_XREC_ROUNDTRIP
360
4E9
  0
DICTIONARY
  5
4EC
330
31
100
AcDbDictionary
280
     1
281
     1
  3
ACAD_XREC_ROUNDTRIP
360
4ED
  0
DICTIONARY
  5
4EA
330
30
100
AcDbDictionary
280
     1
281
     1
  3
ACAD_XREC_ROUNDTRIP
360
4EB
  0
DICTIONARY
  5
4EE
330
32
100
AcDbDictionary
280
     1
281
     1
  3
ACAD_XREC_ROUNDTRIP
360
4EF
  0
DICTIONARY
  5
4F6
330
36
100
AcDbDictionary
280
     1
281
     1
  3
ACAD_XREC_ROUNDTRIP
360
4F7
  0
DICTIONARY
  5
4FE
330
3A
100
AcDbDictionary
280
     1
281
     1
  3
ACAD_XREC_ROUNDTRIP
360
4FF
  0
DICTIONARY
  5
4F2
330
34
100
AcDbDictionary
280
     1
281
     1
  3
ACAD_XREC_ROUNDTRIP
360
4F3
  0
DICTIONARY
  5
4F4
330
35
100
AcDbDictionary
280
     1
281
     1
  3
ACAD_XREC_ROUNDTRIP
360
4F5
  0
DICTIONARY
  5
4FC
330
39
100
AcDbDictionary
280
     1
281
     1
  3
ACAD_XREC_ROUNDTRIP
360
4FD
  0
DICTIONARY
  5
4E0
330
2B
100
AcDbDictionary
280
     1
281
     1
  3
ACAD_XREC_ROUNDTRIP
360
4E1
  0
DICTIONARY
  5
4E2
330
2C
100
AcDbDictionary
280
     1
281
     1
  3
ACAD_XREC_ROUNDTRIP
360
4E3
  0
DICTIONARY
  5
4E4
330
2D
100
AcDbDictionary
280
     1
281
     1
  3
ACAD_XREC_ROUNDTRIP
360
4E5
  0
DICTIONARY
  5
4E6
330
2E
100
AcDbDictionary
280
     1
281
     1
  3
ACAD_XREC_ROUNDTRIP
360
4E7
  0
DICTIONARY
  5
4FA
330
38
100
AcDbDictionary
280
     1
281
     1
  3
ACAD_XREC_ROUNDTRIP
360
4FB
  0
DICTIONARY
  5
4F0
330
33
100
AcDbDictionary
280
     1
281
     1
  3
ACAD_XREC_ROUNDTRIP
360
4F1
  0
DICTIONARY
  5
4F8
330
37
100
AcDbDictionary
280
     1
281
     1
  3
ACAD_XREC_ROUNDTRIP
360
4F9
  0
XRECORD
  5
503
102
{ACAD_REACTORS
330
502
102
}
330
502
100
AcDbXrecord
280
     1
102
MATERIAL
148
0.0
149
0.0
149
0.0
 93
        0
 94
      127
282
     0
 72
     1
 77
     1
171
     1
175
     1
179
     1
273
     0
  0
XRECORD
  5
501
102
{ACAD_REACTORS
330
500
102
}
330
500
100
AcDbXrecord
280
     1
102
MATERIAL
148
0.0
149
0.0
149
0.0
 93
        0
 94
      127
282
     0
 72
     1
 77
     1
171
     1
175
     1
179
     1
273
     0
  0
XRECORD
  5
505
102
{ACAD_REACTORS
330
504
102
}
330
504
100
AcDbXrecord
280
     1
102
MATERIAL
148
0.0
149
0.0
149
0.0
 93
        0
 94
      127
282
     0
 72
     1
 77
     1
171
     1
175
     1
179
     1
273
     0
  0
XRECORD
  5
4E9
102
{ACAD_REACTORS
330
4E8
102
}
330
4E8
100
AcDbXrecord
280
     1
102
RTVSPropertyOp0
 70
     1
102
RTVSPropertyOp1
 70
     1
102
RTVSPropertyOp2
 70
     1
102
RTVSPropertyOp3
 70
     1
102
RTVSPropertyOp4
 70
     1
102
RTVSPropertyOp5
 70
     1
102
RTVSPropertyOp6
 70
     1
102
RTVSPropertyOp7
 70
     1
102
RTVSPropertyOp8
 70
     1
102
RTVSPropertyOp9
 70
     1
102
RTVSPropertyOp10
 70
     1
102
RTVSPropertyOp11
 70
     1
102
RTVSPropertyOp12
 70
     1
102
RTVSPropertyOp13
 70
     1
102
RTVSPropertyOp14
 70
     1
102
RTVSPropertyOp15
 70
     1
102
RTVSPropertyOp16
 70
     1
102
RTVSPropertyOp17
 70
     1
102
RTVSPropertyOp18
 70
     1
102
RTVSPropertyOp19
 70
     1
102
RTVSPropertyOp20
 70
     1
102
RTVSPropertyOp21
 70
     1
102
RTVSPropertyOp22
 70
     1
102
RTVSPropertyOp23
 70
     1
102
RTVSPropertyOp24
 70
     1
102
RTVSPropertyOp25
 70
     1
102
RTVSPropertyOp26
 70
     1
102
RTVSPropertyOp27
 70
     1
102
RTVSPropertyOp28
 70
     1
102
RTVSPropertyOp29
 70
     1
102
RTVSPropertyOp30
 70
     1
102
RTVSPropertyOp31
 70
     1
102
RTVSPropertyOp32
 70
     1
  0
XRECORD
  5
4ED
102
{ACAD_REACTORS
330
4EC
102
}
330
4EC
100
AcDbXrecord
280
     1
102
RTVSPropertyOp0
 70
     1
102
RTVSPropertyOp1
 70
     1
102
RTVSPropertyOp2
 70
     1
102
RTVSPropertyOp3
 70
     1
102
RTVSPropertyOp4
 70
     1
102
RTVSPropertyOp5
 70
     1
102
RTVSPropertyOp6
 70
     1
102
RTVSPropertyOp7
 70
     1
102
RTVSPropertyOp8
 70
     1
102
RTVSPropertyOp9
 70
     1
102
RTVSPropertyOp10
 70
     1
102
RTVSPropertyOp11
 70
     1
102
RTVSPropertyOp12
 70
     1
102
RTVSPropertyOp13
 70
     1
102
RTVSPropertyOp14
 70
     1
102
RTVSPropertyOp15
 70
     1
102
RTVSPropertyOp16
 70
     1
102
RTVSPropertyOp17
 70
     1
102
RTVSPropertyOp18
 70
     1
102
RTVSPropertyOp19
 70
     1
102
RTVSPropertyOp20
 70
     1
102
RTVSPropertyOp21
 70
     1
102
RTVSPropertyOp22
 70
     1
102
RTVSPropertyOp23
 70
     1
102
RTVSPropertyOp24
 70
     1
102
RTVSPropertyOp25
 70
     1
102
RTVSPropertyOp26
 70
     1
102
RTVSPropertyOp27
 70
     1
102
RTVSPropertyOp28
 70
     1
102
RTVSPropertyOp29
 70
     1
102
RTVSPropertyOp30
 70
     1
102
RTVSPropertyOp31
 70
     1
102
RTVSPropertyOp32
 70
     1
  0
XRECORD
  5
4EB
102
{ACAD_REACTORS
330
4EA
102
}
330
4EA
100
AcDbXrecord
280
     1
102
RTVSPropertyOp0
 70
     1
102
RTVSPropertyOp1
 70
     1
102
RTVSPropertyOp2
 70
     1
102
RTVSPropertyOp3
 70
     1
102
RTVSPropertyOp4
 70
     1
102
RTVSPropertyOp5
 70
     1
102
RTVSPropertyOp6
 70
     1
102
RTVSPropertyOp7
 70
     1
102
RTVSPropertyOp8
 70
     1
102
RTVSPropertyOp9
 70
     1
102
RTVSPropertyOp10
 70
     1
102
RTVSPropertyOp11
 70
     1
102
RTVSPropertyOp12
 70
     1
102
RTVSPropertyOp13
 70
     1
102
RTVSPropertyOp14
 70
     1
102
RTVSPropertyOp15
 70
     1
102
RTVSPropertyOp16
 70
     1
102
RTVSPropertyOp17
 70
     1
102
RTVSPropertyOp18
 70
     1
102
RTVSPropertyOp19
 70
     1
102
RTVSPropertyOp20
 70
     1
102
RTVSPropertyOp21
 70
     1
102
RTVSPropertyOp22
 70
     1
102
RTVSPropertyOp23
 70
     1
102
RTVSPropertyOp24
 70
     1
102
RTVSPropertyOp25
 70
     1
102
RTVSPropertyOp26
 70
     1
102
RTVSPropertyOp27
 70
     1
102
RTVSPropertyOp28
 70
     1
102
RTVSPropertyOp29
 70
     1
102
RTVSPropertyOp30
 70
     1
102
RTVSPropertyOp31
 70
     1
102
RTVSPropertyOp32
 70
     1
  0
XRECORD
  5
4EF
102
{ACAD_REACTORS
330
4EE
102
}
330
4EE
100
AcDbXrecord
280
     1
102
RTVSPropertyOp0
 70
     1
102
RTVSPropertyOp1
 70
     1
102
RTVSPropertyOp2
 70
     1
102
RTVSPropertyOp3
 70
     1
102
RTVSPropertyOp4
 70
     1
102
RTVSPropertyOp5
 70
     1
102
RTVSPropertyOp6
 70
     1
102
RTVSPropertyOp7
 70
     1
102
RTVSPropertyOp8
 70
     1
102
RTVSPropertyOp9
 70
     1
102
RTVSPropertyOp10
 70
     1
102
RTVSPropertyOp11
 70
     1
102
RTVSPropertyOp12
 70
     1
102
RTVSPropertyOp13
 70
     1
102
RTVSPropertyOp14
 70
     1
102
RTVSPropertyOp15
 70
     1
102
RTVSPropertyOp16
 70
     1
102
RTVSPropertyOp17
 70
     1
102
RTVSPropertyOp18
 70
     1
102
RTVSPropertyOp19
 70
     1
102
RTVSPropertyOp20
 70
     1
102
RTVSPropertyOp21
 70
     1
102
RTVSPropertyOp22
 70
     1
102
RTVSPropertyOp23
 70
     1
102
RTVSPropertyOp24
 70
     1
102
RTVSPropertyOp25
 70
     1
102
RTVSPropertyOp26
 70
     1
102
RTVSPropertyOp27
 70
     1
102
RTVSPropertyOp28
 70
     1
102
RTVSPropertyOp29
 70
     1
102
RTVSPropertyOp30
 70
     1
102
RTVSPropertyOp31
 70
     1
102
RTVSPropertyOp32
 70
     1
  0
XRECORD
  5
4F7
102
{ACAD_REACTORS
330
4F6
102
}
330
4F6
100
AcDbXrecord
280
     1
102
RTVSPropertyOp0
 70
     1
102
RTVSPropertyOp1
 70
     1
102
RTVSPropertyOp2
 70
     1
102
RTVSPropertyOp3
 70
     1
102
RTVSPropertyOp4
 70
     1
102
RTVSPropertyOp5
 70
     1
102
RTVSPropertyOp6
 70
     1
102
RTVSPropertyOp7
 70
     1
102
RTVSPropertyOp8
 70
     1
102
RTVSPropertyOp9
 70
     1
102
RTVSPropertyOp10
 70
     1
102
RTVSPropertyOp11
 70
     1
102
RTVSPropertyOp12
 70
     1
102
RTVSPropertyOp13
 70
     1
102
RTVSPropertyOp14
 70
     1
102
RTVSPropertyOp15
 70
     1
102
RTVSPropertyOp16
 70
     1
102
RTVSPropertyOp17
 70
     1
102
RTVSPropertyOp18
 70
     1
102
RTVSPropertyOp19
 70
     1
102
RTVSPropertyOp20
 70
     1
102
RTVSPropertyOp21
 70
     1
102
RTVSPropertyOp22
 70
     1
102
RTVSPropertyOp23
 70
     1
102
RTVSPropertyOp24
 70
     1
102
RTVSPropertyOp25
 70
     1
102
RTVSPropertyOp26
 70
     1
102
RTVSPropertyOp27
 70
     1
102
RTVSPropertyOp28
 70
     1
102
RTVSPropertyOp29
 70
     1
102
RTVSPropertyOp30
 70
     1
102
RTVSPropertyOp31
 70
     1
102
RTVSPropertyOp32
 70
     1
  0
XRECORD
  5
4FF
102
{ACAD_REACTORS
330
4FE
102
}
330
4FE
100
AcDbXrecord
280
     1
102
RTVSPropertyOp0
 70
     1
102
RTVSPropertyOp1
 70
     1
102
RTVSPropertyOp2
 70
     1
102
RTVSPropertyOp3
 70
     1
102
RTVSPropertyOp4
 70
     1
102
RTVSPropertyOp5
 70
     1
102
RTVSPropertyOp6
 70
     1
102
RTVSPropertyOp7
 70
     1
102
RTVSPropertyOp8
 70
     1
102
RTVSPropertyOp9
 70
     1
102
RTVSPropertyOp10
 70
     1
102
RTVSPropertyOp11
 70
     1
102
RTVSPropertyOp12
 70
     1
102
RTVSPropertyOp13
 70
     1
102
RTVSPropertyOp14
 70
     1
102
RTVSPropertyOp15
 70
     1
102
RTVSPropertyOp16
 70
     1
102
RTVSPropertyOp17
 70
     1
102
RTVSPropertyOp18
 70
     1
102
RTVSPropertyOp19
 70
     1
102
RTVSPropertyOp20
 70
     1
102
RTVSPropertyOp21
 70
     1
102
RTVSPropertyOp22
 70
     1
102
RTVSPropertyOp23
 70
     1
102
RTVSPropertyOp24
 70
     1
102
RTVSPropertyOp25
 70
     1
102
RTVSPropertyOp26
 70
     1
102
RTVSPropertyOp27
 70
     1
102
RTVSPropertyOp28
 70
     1
102
RTVSPropertyOp29
 70
     1
102
RTVSPropertyOp30
 70
     1
102
RTVSPropertyOp31
 70
     1
102
RTVSPropertyOp32
 70
     1
  0
XRECORD
  5
4F3
102
{ACAD_REACTORS
330
4F2
102
}
330
4F2
100
AcDbXrecord
280
     1
102
RTVSPropertyOp0
 70
     1
102
RTVSPropertyOp1
 70
     1
102
RTVSPropertyOp2
 70
     1
102
RTVSPropertyOp3
 70
     1
102
RTVSPropertyOp4
 70
     1
102
RTVSPropertyOp5
 70
     1
102
RTVSPropertyOp6
 70
     1
102
RTVSPropertyOp7
 70
     1
102
RTVSPropertyOp8
 70
     1
102
RTVSPropertyOp9
 70
     1
102
RTVSPropertyOp10
 70
     1
102
RTVSPropertyOp11
 70
     1
102
RTVSPropertyOp12
 70
     1
102
RTVSPropertyOp13
 70
     1
102
RTVSPropertyOp14
 70
     1
102
RTVSPropertyOp15
 70
     1
102
RTVSPropertyOp16
 70
     1
102
RTVSPropertyOp17
 70
     1
102
RTVSPropertyOp18
 70
     1
102
RTVSPropertyOp19
 70
     1
102
RTVSPropertyOp20
 70
     1
102
RTVSPropertyOp21
 70
     1
102
RTVSPropertyOp22
 70
     1
102
RTVSPropertyOp23
 70
     1
102
RTVSPropertyOp24
 70
     1
102
RTVSPropertyOp25
 70
     1
102
RTVSPropertyOp26
 70
     1
102
RTVSPropertyOp27
 70
     1
102
RTVSPropertyOp28
 70
     1
102
RTVSPropertyOp29
 70
     1
102
RTVSPropertyOp30
 70
     1
102
RTVSPropertyOp31
 70
     1
102
RTVSPropertyOp32
 70
     1
  0
XRECORD
  5
4F5
102
{ACAD_REACTORS
330
4F4
102
}
330
4F4
100
AcDbXrecord
280
     1
102
RTVSPropertyOp0
 70
     1
102
RTVSPropertyOp1
 70
     1
102
RTVSPropertyOp2
 70
     1
102
RTVSPropertyOp3
 70
     1
102
RTVSPropertyOp4
 70
     1
102
RTVSPropertyOp5
 70
     1
102
RTVSPropertyOp6
 70
     1
102
RTVSPropertyOp7
 70
     1
102
RTVSPropertyOp8
 70
     1
102
RTVSPropertyOp9
 70
     1
102
RTVSPropertyOp10
 70
     1
102
RTVSPropertyOp11
 70
     1
102
RTVSPropertyOp12
 70
     1
102
RTVSPropertyOp13
 70
     1
102
RTVSPropertyOp14
 70
     1
102
RTVSPropertyOp15
 70
     1
102
RTVSPropertyOp16
 70
     1
102
RTVSPropertyOp17
 70
     1
102
RTVSPropertyOp18
 70
     1
102
RTVSPropertyOp19
 70
     1
102
RTVSPropertyOp20
 70
     1
102
RTVSPropertyOp21
 70
     1
102
RTVSPropertyOp22
 70
     1
102
RTVSPropertyOp23
 70
     1
102
RTVSPropertyOp24
 70
     1
102
RTVSPropertyOp25
 70
     1
102
RTVSPropertyOp26
 70
     1
102
RTVSPropertyOp27
 70
     1
102
RTVSPropertyOp28
 70
     1
102
RTVSPropertyOp29
 70
     1
102
RTVSPropertyOp30
 70
     1
102
RTVSPropertyOp31
 70
     1
102
RTVSPropertyOp32
 70
     1
  0
XRECORD
  5
4FD
102
{ACAD_REACTORS
330
4FC
102
}
330
4FC
100
AcDbXrecord
280
     1
102
RTVSPropertyOp0
 70
     1
102
RTVSPropertyOp1
 70
     1
102
RTVSPropertyOp2
 70
     1
102
RTVSPropertyOp3
 70
     1
102
RTVSPropertyOp4
 70
     1
102
RTVSPropertyOp5
 70
     1
102
RTVSPropertyOp6
 70
     1
102
RTVSPropertyOp7
 70
     1
102
RTVSPropertyOp8
 70
     1
102
RTVSPropertyOp9
 70
     1
102
RTVSPropertyOp10
 70
     1
102
RTVSPropertyOp11
 70
     1
102
RTVSPropertyOp12
 70
     1
102
RTVSPropertyOp13
 70
     1
102
RTVSPropertyOp14
 70
     1
102
RTVSPropertyOp15
 70
     1
102
RTVSPropertyOp16
 70
     1
102
RTVSPropertyOp17
 70
     1
102
RTVSPropertyOp18
 70
     1
102
RTVSPropertyOp19
 70
     1
102
RTVSPropertyOp20
 70
     1
102
RTVSPropertyOp21
 70
     1
102
RTVSPropertyOp22
 70
     1
102
RTVSPropertyOp23
 70
     1
102
RTVSPropertyOp24
 70
     1
102
RTVSPropertyOp25
 70
     1
102
RTVSPropertyOp26
 70
     1
102
RTVSPropertyOp27
 70
     1
102
RTVSPropertyOp28
 70
     1
102
RTVSPropertyOp29
 70
     1
102
RTVSPropertyOp30
 70
     1
102
RTVSPropertyOp31
 70
     1
102
RTVSPropertyOp32
 70
     1
  0
XRECORD
  5
4E1
102
{ACAD_REACTORS
330
4E0
102
}
330
4E0
100
AcDbXrecord
280
     1
102
RTVSPropertyOp0
 70
     1
102
RTVSPropertyOp1
 70
     1
102
RTVSPropertyOp2
 70
     1
102
RTVSPropertyOp3
 70
     1
102
RTVSPropertyOp4
 70
     1
102
RTVSPropertyOp5
 70
     1
102
RTVSPropertyOp6
 70
     1
102
RTVSPropertyOp7
 70
     1
102
RTVSPropertyOp8
 70
     1
102
RTVSPropertyOp9
 70
     1
102
RTVSPropertyOp10
 70
     1
102
RTVSPropertyOp11
 70
     1
102
RTVSPropertyOp12
 70
     1
102
RTVSPropertyOp13
 70
     1
102
RTVSPropertyOp14
 70
     1
102
RTVSPropertyOp15
 70
     1
102
RTVSPropertyOp16
 70
     1
102
RTVSPropertyOp17
 70
     1
102
RTVSPropertyOp18
 70
     1
102
RTVSPropertyOp19
 70
     1
102
RTVSPropertyOp20
 70
     1
102
RTVSPropertyOp21
 70
     1
102
RTVSPropertyOp22
 70
     1
102
RTVSPropertyOp23
 70
     1
102
RTVSPropertyOp24
 70
     1
102
RTVSPropertyOp25
 70
     1
102
RTVSPropertyOp26
 70
     1
102
RTVSPropertyOp27
 70
     1
102
RTVSPropertyOp28
 70
     1
102
RTVSPropertyOp29
 70
     1
102
RTVSPropertyOp30
 70
     1
102
RTVSPropertyOp31
 70
     1
102
RTVSPropertyOp32
 70
     1
  0
XRECORD
  5
4E3
102
{ACAD_REACTORS
330
4E2
102
}
330
4E2
100
AcDbXrecord
280
     1
102
RTVSPropertyOp0
 70
     1
102
RTVSPropertyOp1
 70
     1
102
RTVSPropertyOp2
 70
     1
102
RTVSPropertyOp3
 70
     1
102
RTVSPropertyOp4
 70
     1
102
RTVSPropertyOp5
 70
     1
102
RTVSPropertyOp6
 70
     1
102
RTVSPropertyOp7
 70
     1
102
RTVSPropertyOp8
 70
     1
102
RTVSPropertyOp9
 70
     1
102
RTVSPropertyOp10
 70
     1
102
RTVSPropertyOp11
 70
     1
102
RTVSPropertyOp12
 70
     1
102
RTVSPropertyOp13
 70
     1
102
RTVSPropertyOp14
 70
     1
102
RTVSPropertyOp15
 70
     1
102
RTVSPropertyOp16
 70
     1
102
RTVSPropertyOp17
 70
     1
102
RTVSPropertyOp18
 70
     1
102
RTVSPropertyOp19
 70
     1
102
RTVSPropertyOp20
 70
     1
102
RTVSPropertyOp21
 70
     1
102
RTVSPropertyOp22
 70
     1
102
RTVSPropertyOp23
 70
     1
102
RTVSPropertyOp24
 70
     1
102
RTVSPropertyOp25
 70
     1
102
RTVSPropertyOp26
 70
     1
102
RTVSPropertyOp27
 70
     1
102
RTVSPropertyOp28
 70
     1
102
RTVSPropertyOp29
 70
     1
102
RTVSPropertyOp30
 70
     1
102
RTVSPropertyOp31
 70
     1
102
RTVSPropertyOp32
 70
     1
  0
XRECORD
  5
4E5
102
{ACAD_REACTORS
330
4E4
102
}
330
4E4
100
AcDbXrecord
280
     1
102
RTVSPropertyOp0
 70
     1
102
RTVSPropertyOp1
 70
     1
102
RTVSPropertyOp2
 70
     1
102
RTVSPropertyOp3
 70
     1
102
RTVSPropertyOp4
 70
     1
102
RTVSPropertyOp5
 70
     1
102
RTVSPropertyOp6
 70
     1
102
RTVSPropertyOp7
 70
     1
102
RTVSPropertyOp8
 70
     1
102
RTVSPropertyOp9
 70
     1
102
RTVSPropertyOp10
 70
     1
102
RTVSPropertyOp11
 70
     1
102
RTVSPropertyOp12
 70
     1
102
RTVSPropertyOp13
 70
     1
102
RTVSPropertyOp14
 70
     1
102
RTVSPropertyOp15
 70
     1
102
RTVSPropertyOp16
 70
     1
102
RTVSPropertyOp17
 70
     1
102
RTVSPropertyOp18
 70
     1
102
RTVSPropertyOp19
 70
     1
102
RTVSPropertyOp20
 70
     1
102
RTVSPropertyOp21
 70
     1
102
RTVSPropertyOp22
 70
     1
102
RTVSPropertyOp23
 70
     1
102
RTVSPropertyOp24
 70
     1
102
RTVSPropertyOp25
 70
     1
102
RTVSPropertyOp26
 70
     1
102
RTVSPropertyOp27
 70
     1
102
RTVSPropertyOp28
 70
     1
102
RTVSPropertyOp29
 70
     1
102
RTVSPropertyOp30
 70
     1
102
RTVSPropertyOp31
 70
     1
102
RTVSPropertyOp32
 70
     1
  0
XRECORD
  5
4E7
102
{ACAD_REACTORS
330
4E6
102
}
330
4E6
100
AcDbXrecord
280
     1
102
RTVSPropertyOp0
 70
     1
102
RTVSPropertyOp1
 70
     1
102
RTVSPropertyOp2
 70
     1
102
RTVSPropertyOp3
 70
     1
102
RTVSPropertyOp4
 70
     1
102
RTVSPropertyOp5
 70
     1
102
RTVSPropertyOp6
 70
     1
102
RTVSPropertyOp7
 70
     1
102
RTVSPropertyOp8
 70
     1
102
RTVSPropertyOp9
 70
     1
102
RTVSPropertyOp10
 70
     1
102
RTVSPropertyOp11
 70
     1
102
RTVSPropertyOp12
 70
     1
102
RTVSPropertyOp13
 70
     1
102
RTVSPropertyOp14
 70
     1
102
RTVSPropertyOp15
 70
     1
102
RTVSPropertyOp16
 70
     1
102
RTVSPropertyOp17
 70
     1
102
RTVSPropertyOp18
 70
     1
102
RTVSPropertyOp19
 70
     1
102
RTVSPropertyOp20
 70
     1
102
RTVSPropertyOp21
 70
     1
102
RTVSPropertyOp22
 70
     1
102
RTVSPropertyOp23
 70
     1
102
RTVSPropertyOp24
 70
     1
102
RTVSPropertyOp25
 70
     1
102
RTVSPropertyOp26
 70
     1
102
RTVSPropertyOp27
 70
     1
102
RTVSPropertyOp28
 70
     1
102
RTVSPropertyOp29
 70
     1
102
RTVSPropertyOp30
 70
     1
102
RTVSPropertyOp31
 70
     1
102
RTVSPropertyOp32
 70
     1
  0
XRECORD
  5
4FB
102
{ACAD_REACTORS
330
4FA
102
}
330
4FA
100
AcDbXrecord
280
     1
102
RTVSPropertyOp0
 70
     1
102
RTVSPropertyOp1
 70
     1
102
RTVSPropertyOp2
 70
     1
102
RTVSPropertyOp3
 70
     1
102
RTVSPropertyOp4
 70
     1
102
RTVSPropertyOp5
 70
     1
102
RTVSPropertyOp6
 70
     1
102
RTVSPropertyOp7
 70
     1
102
RTVSPropertyOp8
 70
     1
102
RTVSPropertyOp9
 70
     1
102
RTVSPropertyOp10
 70
     1
102
RTVSPropertyOp11
 70
     1
102
RTVSPropertyOp12
 70
     1
102
RTVSPropertyOp13
 70
     1
102
RTVSPropertyOp14
 70
     1
102
RTVSPropertyOp15
 70
     1
102
RTVSPropertyOp16
 70
     1
102
RTVSPropertyOp17
 70
     1
102
RTVSPropertyOp18
 70
     1
102
RTVSPropertyOp19
 70
     1
102
RTVSPropertyOp20
 70
     1
102
RTVSPropertyOp21
 70
     1
102
RTVSPropertyOp22
 70
     1
102
RTVSPropertyOp23
 70
     1
102
RTVSPropertyOp24
 70
     1
102
RTVSPropertyOp25
 70
     1
102
RTVSPropertyOp26
 70
     1
102
RTVSPropertyOp27
 70
     1
102
RTVSPropertyOp28
 70
     1
102
RTVSPropertyOp29
 70
     1
102
RTVSPropertyOp30
 70
     1
102
RTVSPropertyOp31
 70
     1
102
RTVSPropertyOp32
 70
     1
  0
XRECORD
  5
4F1
102
{ACAD_REACTORS
330
4F0
102
}
330
4F0
100
AcDbXrecord
280
     1
102
RTVSPropertyOp0
 70
     1
102
RTVSPropertyOp1
 70
     1
102
RTVSPropertyOp2
 70
     1
102
RTVSPropertyOp3
 70
     1
102
RTVSPropertyOp4
 70
     1
102
RTVSPropertyOp5
 70
     1
102
RTVSPropertyOp6
 70
     1
102
RTVSPropertyOp7
 70
     1
102
RTVSPropertyOp8
 70
     1
102
RTVSPropertyOp9
 70
     1
102
RTVSPropertyOp10
 70
     1
102
RTVSPropertyOp11
 70
     1
102
RTVSPropertyOp12
 70
     1
102
RTVSPropertyOp13
 70
     1
102
RTVSPropertyOp14
 70
     1
102
RTVSPropertyOp15
 70
     1
102
RTVSPropertyOp16
 70
     1
102
RTVSPropertyOp17
 70
     1
102
RTVSPropertyOp18
 70
     1
102
RTVSPropertyOp19
 70
     1
102
RTVSPropertyOp20
 70
     1
102
RTVSPropertyOp21
 70
     1
102
RTVSPropertyOp22
 70
     1
102
RTVSPropertyOp23
 70
     1
102
RTVSPropertyOp24
 70
     1
102
RTVSPropertyOp25
 70
     1
102
RTVSPropertyOp26
 70
     1
102
RTVSPropertyOp27
 70
     1
102
RTVSPropertyOp28
 70
     1
102
RTVSPropertyOp29
 70
     1
102
RTVSPropertyOp30
 70
     1
102
RTVSPropertyOp31
 70
     1
102
RTVSPropertyOp32
 70
     1
  0
XRECORD
  5
4F9
102
{ACAD_REACTORS
330
4F8
102
}
330
4F8
100
AcDbXrecord
280
     1
102
RTVSPropertyOp0
 70
     1
102
RTVSPropertyOp1
 70
     1
102
RTVSPropertyOp2
 70
     1
102
RTVSPropertyOp3
 70
     1
102
RTVSPropertyOp4
 70
     1
102
RTVSPropertyOp5
 70
     1
102
RTVSPropertyOp6
 70
     1
102
RTVSPropertyOp7
 70
     1
102
RTVSPropertyOp8
 70
     1
102
RTVSPropertyOp9
 70
     1
102
RTVSPropertyOp10
 70
     1
102
RTVSPropertyOp11
 70
     1
102
RTVSPropertyOp12
 70
     1
102
RTVSPropertyOp13
 70
     1
102
RTVSPropertyOp14
 70
     1
102
RTVSPropertyOp15
 70
     1
102
RTVSPropertyOp16
 70
     1
102
RTVSPropertyOp17
 70
     1
102
RTVSPropertyOp18
 70
     1
102
RTVSPropertyOp19
 70
     1
102
RTVSPropertyOp20
 70
     1
102
RTVSPropertyOp21
 70
     1
102
RTVSPropertyOp22
 70
     1
102
RTVSPropertyOp23
 70
     1
102
RTVSPropertyOp24
 70
     1
102
RTVSPropertyOp25
 70
     1
102
RTVSPropertyOp26
 70
     1
102
RTVSPropertyOp27
 70
     1
102
RTVSPropertyOp28
 70
     1
102
RTVSPropertyOp29
 70
     1
102
RTVSPropertyOp30
 70
     1
102
RTVSPropertyOp31
 70
     1
102
RTVSPropertyOp32
 70
     1
  0
ENDSEC
  0
EOF
